Oops, an error
Loading. Please wait.

7Th Saga - Shop Theme Tab

version 1
version 1

Whole song

  • There is no plain tab of this song.

Interactive

10 views 1 this week
no commentswrite comment
1 2 3 4 5
3 more votes to show rating
add to favorites
launch autoscroll
font size
0
reset
how to read this tab
guitar tuner
Autoscroll
slow
fast
+/-
esc
set tempo
stop
Help us to improve Ultimate-Guitar.com Take our survey!
×
Author
Difficulty
intermediate
About this tab version
There is no plain tab of this song. Was this info helpful? Yes No
#----------------------------------PLEASE NOTE---------------------------------#
#This file is the author's own work and represents their interpretation of the #
#song. You may only use this file for private study, scholarship, or research. #
#------------------------------------------------------------------------------##

7th Saga (SNES) - Shop theme

Gtr I (E A D G B E) - 'Flute'
Gtr II (E A D G B E) - 'Oboe'

    Gtr I
     E  E  E  E  E E  E E    E  S  S  E  E  Q    E E
||--------19-20-22---20---|-19-20-19----20-19--------|
||o-20-22-----------------|----------22---------20---|
||------------------------|--------------------------|
||------------------------|--------------------------|
||o-----------------------|--------------------------|
||------------------------|--------------------------|
|
|   Gtr II
|    E  E  E  E  E E  E E    E  E     E  E  E E  E E
||------------------------|--------------------------|
||o-----------------------|----------------13--------|
||--------12-14-12--------|----------12-14------14---|
||-----12------------12---|----12--------------------|
||o-----------------------|--------------------------|
||------------------------|--------------------------|


   E  E  E  E  E E  E E    E  S  S  E  E  Q    E E
|-------19-20-22---20---|-19-20-19------------19--|
|-20-22-----------------|----------22-20-22-------|
|-----------------------|-------------------------|
|-----------------------|-------------------------|
|-----------------------|-------------------------|
|-----------------------|-------------------------|
|
|  E  E  E  E  E E  E E    E  E     E  E  E E  E E
|-----------------------|-------------------------|
|-----------------------|----------------13-------|
|-------12-14-12--------|----------12-14------12--|
|----12------------12---|----12-------------------|
|-----------------------|-------------------------|
|-----------------------|-------------------------|


   E  E  E  E  E E  E E    E  S  S  E  E  Q    E E
|-------19-20-22---20---|-19-20-19----20-19--------|
|-20-22-----------------|----------22---------20---|
|-----------------------|--------------------------|
|-----------------------|--------------------------|
|-----------------------|--------------------------|
|-----------------------|--------------------------|
|
|  E  E  E  E  E E  E E    E  E     E  E  E E  E E
|-----------------------|--------------------------|
|-----------------------|----------------13--------|
|-------12-14-12--------|----------12-14------14---|
|----12------------12---|----12--------------------|
|-----------------------|--------------------------|
|-----------------------|--------------------------|


   E  E  E  E  E E  E E    E  S  S  E  E  Q    E E
|-------19-20-22---20---|-19-20-19------------19---|
|-20-22-----------------|----------22-20-22--------|
|-----------------------|--------------------------|
|-----------------------|--------------------------|
|-----------------------|--------------------------|
|-----------------------|--------------------------|
|
|  E  E  E  E  E E  E E    E  E     E  E  E E  E E
|-----------------------|--------------------------|
|-----------------------|----------------13--------|
|-------12-14-12--------|----------12-14------12---|
|----12------------12---|----12--------------------|
|-----------------------|--------------------------|
|-----------------------|--------------------------|


   E  E  E  E  E  E  E  E    E E  E E  Q.    E
|----------17-------------|------17---19-------|
|-17-19-20----19----17-19-|-20-----------------|
|----------------19-------|--------------------|
|-------------------------|--------------------|
|-------------------------|--------------------|
|-------------------------|--------------------|
|
|  E  E  E  E  E  E  E  E    E E  E E  Q   Q
|-------15-17-------------|--------------------|
|-13-15-------15----13----|-15---13------------|
|-------------------------|-----------16-------|
|-------------------------|--------------------|
|-------------------------|--------------------|
|-------------------------|--------------------|


   E  E  E  E  E  E  E  E    E E  E E  Q.    E
|-20-19-17----------------|--------------------|
|----------20-19----17-19-|-20--------20-------|
|----------------19-------|------19------------|
|-------------------------|--------------------|
|-------------------------|--------------------|
|-------------------------|--------------------|
|
|  E  E  E  E  E  E  E  E    E E  E E  Q   Q
|-------15-17-------------|--------------------|
|-13-15-------15----13----|------13------------|
|-------------------------|-16-----------------|
|-------------------------|-----------17-------|
|-------------------------|--------------------|
|-------------------------|--------------------|


   E  E  E  E  E  E  E  E    E E  E E  Q.    E
|----------17-------------|------17---19-------|
|-17-19-20----19----17-19-|-20-----------------|
|----------------19-------|--------------------|
|-------------------------|--------------------|
|-------------------------|--------------------|
|-------------------------|--------------------|
|
|  E  E  E  E  E  E  E  E    E E  E E  Q   Q
|-------15-17-------------|--------------------|
|-13-15-------15----13----|-15---13------------|
|-------------------------|-----------16-------|
|-------------------------|--------------------|
|-------------------------|--------------------|
|-------------------------|--------------------|


   E  E  E  E  E E  E  E    E  E  E  E  E  E  Q
|-20-19-17---------------|----------17-------22----||
|----------20-19---------|-17-19-20----19---------o||
|------------------19----|----------------19-------||
|------------------------|-------------------------||
|------------------------|------------------------o||
|------------------------|-------------------------||
|
|  Q     E  E  Q    E  E    E  E  E  E  E  E  E E
|------------------------|-------------------------||
|-13-------13------------|-15----------------15---o||
|-------------14------14-|-------14----------------||
|------------------------|-------------16----------||
|------------------------|----------------17------o||
|------------------------|-------------------------||



Suggest correction
Give kudos to tab author, rate the tab!
1 2 3 4 5
comments
print report bad tab
guest
You may want to rate the tab now too:
select rating
Wanna post a correction for this tab? Suggest correction