Oops, an error
Loading. Please wait.

Actraiser - Birth Of The People Bass Tab

version 1
version 1

Whole song

  • There is no plain bass tab for this song.

Interactive

4 views 1 this week
no commentswrite comment
1 2 3 4 5
3 more votes to show rating
add to favorites
launch autoscroll
font size
0
reset
guitar tuner
Autoscroll
slow
fast
+/-
esc
set tempo
stop
Help us to improve Ultimate-Guitar.com Take our survey!
×
Author
Difficulty
advanced
About this tab version
There is no plain bass tab for this song. Was this info helpful? Yes No
#----------------------------------PLEASE NOTE---------------------------------#
#This file is the author's own work and represents their interpretation of the #
#song. You may only use this file for private study, scholarship, or research. #
#------------------------------------------------------------------------------##

Actraiser (SNES) - Birth of the People (overworld theme)...on bass!!!

Gtr I (B E A D G) - 'Bass 1'
Gtr II (B E A D G) - 'Bass 2'

    Q=110
    Gtr I
    W          W          W          W
G||-----------|----------|----------|------|
D||o----------|----------|----------|------|
A||-----------|----------|----------|------|
E||o----------|----------|----------|------|
B||-----------|----------|----------|------|


  W          H    Q  Q    Q  Q  Q  Q    Q  Q  E S S S S S S
|----------|------------|-------------|----------------------|
|----------|------------|-------------|----------------------|
|----------|------5-----|-7-----5-----|-7-----5-5-7-8-7-5----|
|----------|---------5--|----5-----5--|----5--------------8--|
|----------|------------|-------------|----------------------|


  Q   Q  E S S S S S S   Q   Q  E S S S S S S
|----------------------|----------------------|
|----------------------|----------------------|
|------------5-7-5-----|--------------5-------|
|-6------8-8-------8-6-|-5------6-6-8---8-6-5-|
|-----8----------------|-----6----------------|
|
| Gtr II
|   W                      W
|----------------------|----------------------|
|----------------------|----------------------|
|----------------------|----------------------|
|----------------------|----------------------|
|----------------------|----------------------|


  Q  Q  E S S S S S S   Q  Q   S  S  S  S  S  S  S  S
|---------------------|---------------------------------|
|---------------------|---------------------------------|
|-------------4-------|--------9-10-12-10--9--------9---|
|-3-----5-5-6---6-5-3-|----------------------10-12------|
|----5----------------|-6--3----------------------------|
|
| W                     H      S  S  S  S  S  S  S  S
|---------------------|-------11-12-14-12-11-------11---|
|---------------------|----------------------12-14------|
|---------------------|---------------------------------|
|---------------------|---------------------------------|
|---------------------|---------------------------------|


   S  S  S  S  S  S  S  S  S  S  S  S  S  S  S  S
|-------------------------------------------------|
|-------------------------------------------------|
|-10--9-10-12-13-12-10----------10----------------|
|----------------------13-12-13----13-12----10-12-|
|----------------------------------------13-------|
|
|  S  S  S  S  S  S  S  S  S  S  S  S  S  S  S  S
|-12-11-12-14-15-14-12----------12----------------|
|----------------------15-14-15----15-14----12-14-|
|----------------------------------------15-------|
|-------------------------------------------------|
|-------------------------------------------------|


   S  S  S  S  S  S  S  S  S  S  S  S  S  S  S  S
|---------------------------------------------------|
|---------------------------------------------------|
|----------10-12-10---------------------------------|
|-13-12-13----------13-12-10-12-13-12-10-------10---|
|----------------------------------------11-13------|
|
|  S  S  S  S  S  S  S  S  S  S  S  S  S  S  S  S
|----------12-14-12---------------------------------|
|-15-14-15----------15-14-12-14-15-14-12-------12---|
|----------------------------------------13-15------|
|---------------------------------------------------|
|---------------------------------------------------|


                                                   2/4
   S  S  S  S  S  S  S  S  S  S  S  S  S  S  S  S    H
|-------------------------------------------------|--------||
|-------------------------------------------------|-------o||
|-------------10----------------------------------|--------||
|-12-10-12-13----13-12-10--9-10-12-10--9--------9-|-10----o||
|----------------------------------------10-12----|--------||
|
|  S  S  S  S  S  S  S  S  S  S  S  S  S  S  S  S    H
|-------------12----------------------------------|--------||
|-14-12-14-15----15-14-12-11-12-14-12-11-------11-|-12----o||
|----------------------------------------12-14----|--------||
|-------------------------------------------------|-------o||
|-------------------------------------------------|--------||


Suggest correction
Give kudos to tab author, rate the tab!
1 2 3 4 5
comments
print report bad tab
guest
You may want to rate the tab now too:
select rating
Wanna post a correction for this tab? Suggest correction