Oops, an error
Loading. Please wait.

Adventure Island - Level 1 tab

version 1
version 1

Whole song

Interactive

1,137 views 1 this week
no commentswrite comment
1 2 3 4 5
3 more votes to show rating
add to favorites
×
Save as Personal and add changes to this tab that will be seen only by you. Learn more ›
×
You can save this tab as Personal to edit and correct it or add notes. All changes will be seen only by you. Learn more »
launch autoscroll
font size
0
reset
how to read this tab
guitar tuner
edit
Autoscroll
slow
fast
+/-
esc
set tempo
stop
Author
Gtr I (E A D G B E) - 'Melody'
Gtr II (E A D G B E) - 'Harmony'

  Q=224
 4/4
  Gtr I
  E E E E E E E E    E E  E  E Q   E E
|-------1-5---8---|-12---11-10---------|
|-1-3-------------|--------------------|
|-----------------|--------------------|
|-----------------|---------------10---|
|-----------------|--------------------|
|-----------------|--------------------|
|
| Gtr II
| E E E E E E E E    E E  E  E Q   E E
|---------1---5---|--8----7--6---------|
|---1---3---------|--------------------|
|-2---------------|--------------------|
|-----------------|--------------------|
|-----------------|--------------------|
|-----------------|----------------8---|

   E E  E  E H       E E  E  E E  E E  E
|--8----9-10------|--8----9-10---10-9-10-|
|-----------------|----------------------|
|-----------------|----------------------|
|-----------------|----------------------|
|-----------------|----------------------|
|-----------------|----------------------|
|
|  E E  E  E H       E E  E  E E  E E  E
|-----------------|----------------------|
|-10---10-10------|-10---10-10---10-9-10-|
|-----------------|----------------------|
|-----------------|----------------------|
|-----------------|----------------------|
|-----------------|----------------------|

   E E  E E  E E  E E   W           E E  E  E H       E E  E  E E  E  E  E
|-12---12---10--------|----------|-----------------|-----------------------|
|----------------11---|----------|-11---12-13------|-11---12-13---13-12-13-|
|---------------------|----------|-----------------|-----------------------|
|---------------------|----------|-----------------|-----------------------|
|---------------------|----------|-----------------|-----------------------|
|---------------------|----------|-----------------|-----------------------|
|
|  E E  E E  E E  E E   W           E E  E  E H       E E  E  E E  E  E  E
|--8----8----6--------|----------|-----------------|-----------------------|
|-----------------8---|----------|--8----8--8------|--8----8--8----8--7--8-|
|---------------------|----------|-----------------|-----------------------|
|---------------------|----------|-----------------|-----------------------|
|---------------------|----------|-----------------|-----------------------|
|---------------------|----------|-----------------|-----------------------|

   E E  E E  E E  E E   W
|---------------------|----------|
|-15---15---13--------|----------|
|----------------14---|----------|
|---------------------|----------|
|---------------------|----------|
|---------------------|----------|
|
|  E E  E E  E E  E E   W
|--6----6----5--------|----------|
|-----------------6---|----------|
|---------------------|----------|
|---------------------|----------|
|---------------------|----------|
|---------------------|----------|

   E E  E  E H       E.  S  +S   E.  E E  E  E
|-----------------|----------------------------|
|-13---14-15------|-13--13-(13)-14--15---14-15-|
|-----------------|----------------------------|
|-----------------|----------------------------|
|-----------------|----------------------------|
|-----------------|----------------------------|
|
|  E E  E  E H       E.  S  +S   E.  E E  E  E
|--5----5--5------|--5---5--(5)--5---5----4--5-|
|-----------------|----------------------------|
|-----------------|----------------------------|
|-----------------|----------------------------|
|-----------------|----------------------------|
|-----------------|----------------------------|

   E E  E E  E E  E E   W           E E  E  E H       E E  E  E E  E  E  E
|---------------------|----------|-----------------|-----------------------|
|-17---17---15--------|----------|-----------------|-----------------------|
|----------------15---|----------|-15---16-17------|-15---16-17---17-16-17-|
|---------------------|----------|-----------------|-----------------------|
|---------------------|----------|-----------------|-----------------------|
|---------------------|----------|-----------------|-----------------------|
|
|  E E  E E  E E  E E   W           E E  E  E H       E E  E  E E  E  E  E
|--8----8----6--------|----------|-----------------|-----------------------|
|-----------------8---|----------|--8----8--8------|--8----8--8----8--7--8-|
|---------------------|----------|-----------------|-----------------------|
|---------------------|----------|-----------------|-----------------------|
|---------------------|----------|-----------------|-----------------------|
|---------------------|----------|-----------------|-----------------------|

   E E  E E  E E  E E   E  E  E  E  E  E  E  E
|---------------------|------------------------|
|-15---15---13--------|---------------------13-|
|----------------14---|------------14----14----|
|---------------------|---15-14-15----15-------|
|---------------------|------------------------|
|---------------------|------------------------|
|
|  E E  E E  E E  E E   E  E  E  E  E  E  E  E
|--6----6----5--------|----------------------5-|
|-----------------6---|----6--5--6--6-----6----|
|---------------------|----------------5-------|
|---------------------|------------------------|
|---------------------|------------------------|
|---------------------|------------------------|

   Q    E  E  +Q    E  E    Q    E  E  +E   E  E  E
|-13---14-15-(15)--------|-13---14-15-(15)-17-15----|
|---------------------15-|-----------------------15-|
|------------------------|--------------------------|
|------------------------|--------------------------|
|------------------------|--------------------------|
|------------------------|--------------------------|
|
|  E E  E  E  +E  E E  E    E E  E  E  +E   E  E  E
|--5----8-11-(11)--------|-------8-11-(11)-13-11----|
|------------------------|-10--------------------10-|
|---------------------10-|--------------------------|
|------------------------|--------------------------|
|------------------------|--------------------------|
|------------------------|--------------------------|

   Q    E  E  +Q    E  E    E  E  E  E  +E   E  E  E
|-13---14-15-(15)--------|-13-13-14-15-(15)-17-15----|
|---------------------15-|------------------------15-|
|------------------------|---------------------------|
|------------------------|---------------------------|
|------------------------|---------------------------|
|------------------------|---------------------------|
|
|  E E  E  E  +E  E E  E    E  E  E  E  +E   E  E  E
|-10----9-10-(10)--------|-10-10----10-(10)-13-------|
|---------------------11-|-------11------------15----|
|------------------------|------------------------15-|
|------------------------|---------------------------|
|------------------------|---------------------------|
|------------------------|---------------------------|

   E  E E  E  E E E  E    E  E E  E  E E  E E
|----------------------|-----------------17---|
|-13-13---14-15--------|-13-13---14-15--------|
|-------------------14-|----------------------|
|----------------------|----------------------|
|----------------------|----------------------|
|----------------------|----------------------|
|
|  E  E E  E  E E Q       E  E E  E  E E  E E
|----------------------|----------------------|
|----------------------|-----------------17---|
|------------15--------|------------15--------|
|-17-19---17-----------|-17-19---17-----------|
|----------------------|----------------------|
|----------------------|----------------------|

   E E Q  H      W           E E  E  E H       E E  E  E E  E  E  E
|--------------|----------|-----------------|-----------------------|
|-18-----------|----------|-----------------|-----------------------|
|--------------|----------|-17---18-19------|-17---18-19---19-18-19-|
|--------------|----------|-----------------|-----------------------|
|--------------|----------|-----------------|-----------------------|
|--------------|----------|-----------------|-----------------------|
|
|  E E Q  H      W           E E  E  E H       E E  E  E E  E  E  E
|--------------|----------|-----------------|-----------------------|
|--------------|----------|-----------------|-----------------------|
|-17-----------|----------|-----------------|-----------------------|
|--------------|----------|-19---19-19------|-19---19-19---19-18-19-|
|--------------|----------|-----------------|-----------------------|
|--------------|----------|-----------------|-----------------------|

   E E  E E  E E  E E   W           E E  E  E H       E E  E  E E  E  E  E
|---------------------|----------|-----------------|-----------------------|
|-17---17---15--------|----------|-----------------|-----------------------|
|----------------15---|----------|-15---16-17------|-15---16-17---17-16-17-|
|---------------------|----------|-----------------|-----------------------|
|---------------------|----------|-----------------|-----------------------|
|---------------------|----------|-----------------|-----------------------|
|
|  E E  E E  E E  E E   W           E E  E  E H       E E  E  E E  E  E  E
|---------------------|----------|-----------------|-----------------------|
|---------------------|----------|-----------------|-----------------------|
|-17---17---15--------|----------|-----------------|-----------------------|
|----------------17---|----------|-17---17-17------|-17---17-17---17-16-17-|
|---------------------|----------|-----------------|-----------------------|
|---------------------|----------|-----------------|-----------------------|

   E E  E E  E E  E E   W
|---------------------|----------|
|-15---15---13--------|----------|
|----------------14---|----------|
|---------------------|----------|
|---------------------|----------|
|---------------------|----------|
|
|  E E  E E  E E  E E   W
|---------------------|----------|
|---------------------|----------|
|-15---15---14--------|----------|
|----------------15---|----------|
|---------------------|----------|
|---------------------|----------|

   E E  E  E H       E.  S  +S   E.  E E  E  E
|-----------------|----------------------------|
|-13---14-15------|-13--13-(13)-14--15---14-15-|
|-----------------|----------------------------|
|-----------------|----------------------------|
|-----------------|----------------------------|
|-----------------|----------------------------|
|
|  E E  E  E H       E.  S  +S   E.  E E  E  E
|-----------------|----------------------------|
|-----------------|----------------------------|
|-14---14-14------|-14--14-(14)-14--14---13-14-|
|-----------------|----------------------------|
|-----------------|----------------------------|
|-----------------|----------------------------|

   E E  E E  E E  E E   W           E E  E  E H       E E  E  E E  E  E  E
|---------------------|----------|-----------------|-----------------------|
|-17---17---15--------|----------|-----------------|-----------------------|
|----------------15---|----------|-15---16-17------|-15---16-17---17-16-17-|
|---------------------|----------|-----------------|-----------------------|
|---------------------|----------|-----------------|-----------------------|
|---------------------|----------|-----------------|-----------------------|
|
|  E E  E E  E E  E E   W           E E  E  E H       E E  E  E E  E  E  E
|---------------------|----------|-----------------|-----------------------|
|-13---13---11--------|----------|-----------------|-----------------------|
|----------------12---|----------|-12---12-12------|-12---12-12---12-11-12-|
|---------------------|----------|-----------------|-----------------------|
|---------------------|----------|-----------------|-----------------------|
|---------------------|----------|-----------------|-----------------------|

   E E  E E  E E  E E   E  E  E  E  E  E  E  E
|---------------------|------------------------|
|-15---15---13--------|---------------------13-|
|----------------14---|------------14----14----|
|---------------------|---15-14-15----15-------|
|---------------------|------------------------|
|---------------------|------------------------|
|
|  E E  E E  E E  E E   E  E  E  E  E  E  E  E
|---------------------|------------------------|
|-11---11---10--------|---------------------10-|
|----------------10---|---10--9-10-10----10----|
|---------------------|---------------10-------|
|---------------------|------------------------|
|---------------------|------------------------|

   Q    E  E  +Q    E  E    Q    E  E  +E   E  E  E
|-13---14-15-(15)--------|-13---14-15-(15)-17-15----|
|---------------------15-|-----------------------15-|
|------------------------|--------------------------|
|------------------------|--------------------------|
|------------------------|--------------------------|
|------------------------|--------------------------|
|
|  E E  E  E  +E  E E  E    E E  E  E  +E   E  E  E
|-------8-11-(11)--------|-------8-11-(11)-13-11----|
|-10---------------------|-10--------------------10-|
|---------------------10-|--------------------------|
|------------------------|--------------------------|
|------------------------|--------------------------|
|------------------------|--------------------------|

   Q    E  E  +Q    E  E    E  E  E  E  +E   E  E  E
|-13---14-15-(15)--------|-13-13-14-15-(15)-17-15----|
|---------------------15-|------------------------15-|
|------------------------|---------------------------|
|------------------------|---------------------------|
|------------------------|---------------------------|
|------------------------|---------------------------|
|
|  E E  E  E  +E  E E  E    E  E  E  E  +E   E  E  E
|-10----9-10-(10)--------|-10-10----10-(10)-13-------|
|---------------------11-|-------11------------15----|
|------------------------|------------------------15-|
|------------------------|---------------------------|
|------------------------|---------------------------|
|------------------------|---------------------------|

   E  E E  E  E E E  E    E  E E  E  E E  E E
|----------------------|-----------------17---|
|-13-13---14-15--------|-13-13---14-15--------|
|-------------------14-|----------------------|
|----------------------|----------------------|
|----------------------|----------------------|
|----------------------|----------------------|
|
|  E  E E  E  E E Q       E  E E  E  E E  E E
|----------------------|----------------------|
|----------------------|-----------------17---|
|------------15--------|------------15--------|
|-17-19---17-----------|-17-19---17-----------|
|----------------------|----------------------|
|----------------------|----------------------|

   E E Q  H
|--------------*|
|-18-----------*|
|--------------*|
|--------------*|
|--------------*|
|--------------*|
|
|  E E Q  H
|--------------*|
|--------------*|
|-17-----------*|
|--------------*|
|--------------*|
|--------------*|
Suggest correction
Creating personal tab
Creating personal tab
You can edit any tab online and save it as your Personal.

You can edit, replace or remove any tab part or add personal notes – all changes will be seen only by you.

Personal tabs can be accessed anytime from any device, even offline.
Learn more »
Give kudos to tab author, rate the tab!
1 2 3 4 5
comments
print report bad tab
guest
You may want to rate the tab now too:
select rating
Wanna post a correction for this tab? Suggest correction