Oops, an error
Loading. Please wait.

Age Of Empires 2 Age Of Kings Theme Tab

version 1
version 1

Whole song

480 views 6 this week
no commentswrite comment
1 2 3 4 5
3 more votes to show rating
add to favorites
launch autoscroll
font size
0
reset
how to read this tab
guitar tuner
×
Best way to learn
"Age Of Empires 2 Age Of Kings Theme"
Autoscroll
slow
fast
+/-
esc
set tempo
stop
Age of Empires II: The Age of Kings
Tema Principal 100% correcto, 100% oído

Esta primera parte es la del video de introducción

e|-0-5-8-7-5-7--0-5-8-7-5-10--7-8-7-3-5----------------|
B|-----------------------------------------------------|
G|-----------------------------------------------------|
D|-----------------------------------------------------|
A|-----------------------------------------------------|
E|-----------------------------------------------------|

e|-----------------------------------------------------|
B|-----------------------------------------------------|
G|-----------------------------------------------------|
D|-----------------------------------------------------|
A|-----------------------------------------------------|
E|-1-3--4-3--1-3--4-3----------------------------------|

e|-5-4-5--9-8-7-6-5-3-4-5------------------------------|
B|-----------------------------------------------------|
G|-----------------------------------------------------|
D|-----------------------------------------------------|
A|-----------------------------------------------------|
E|-----------------------------------------------------|

Este es el tema principal, cuando aparece el menú del juego
e|-0-5-8-7-5-7--0-5-8-7-5-10--0-5-8-7-5-7--7-8-7-3-5---|
B|-----------------------------------------------------|
G|-----------------------------------------------------|
D|-----------------------------------------------------|
A|-----------------------------------------------------|
E|-----------------------------------------------------|

e|-8-8-8-8-11-10-8-----8-8-8-8-13-11-10---8------------|
B|-----------------9-8------------------8--------------|
G|-----------------------------------------------------|(x2)
D|-----------------------------------------------------|
A|-----------------------------------------------------|
E|-----------------------------------------------------|

e|-0-5-8-7-5-7--0-5-8-7-5-10-12--0-5-8-7-5-7--7-8-7-3-5|
B|-----------------------------------------------------|
G|-----------------------------------------------------|
D|-----------------------------------------------------|
A|-----------------------------------------------------|
E|-----------------------------------------------------|

Hace un año toco guitarra, este juego me gusta mucho,
así que decidí sacar su música.
Pronto sacaré el resto de la música y de más juegos de PC.
Si quieren tabs de rock (blink182,box car racer,linkin park,papa roach,
red hot chili peppers,incubus,limp bizkit,crazy town,green day,
no doubt,staind,system of a down,wheatus y gorillaz)escribanme al e-mail
ó visiten 
Elizabeth TQM.
SALUDOS A TODOS LOS DE LA UNIVERSIDAD DE MEDELLÍN
Suggest correction
Give kudos to tab author, rate the tab!
1 2 3 4 5
comments
print report bad tab
guest
You may want to rate the tab now too:
select rating
Wanna post a correction for this tab? Suggest correction