Oops, an error
Loading. Please wait.

Age Of Empires 2 The Conquerors - Music 2 Pudding Pie intro tab

version 1
version 1

Intro

Whole song

240 views 1 this week
no commentswrite comment
1 2 3 4 5
3 more votes to show rating
add to favorites
×
Save as Personal and add changes to this tab that will be seen only by you. Learn more ›
×
You can save this tab as Personal to edit and correct it or add notes. All changes will be seen only by you. Learn more »
launch autoscroll
font size
0
reset
how to read this tab
guitar tuner
edit
Autoscroll
slow
fast
+/-
esc
set tempo
stop
-------------------------------------------------------------------------------
               Age of Empires 2 The Conquerors Music 2 Pudding Pie
-------------------------------------------------------------------------------
E-mail: Shockomega@yahoo.com

This is my favorite song in the track so I decided to learn and tab it. This is
pretty much the whole song, but unfortunately without the second half of the 
backing guitar because it is just too fast for me to figure out. So here it is,
enjoy! :) 

Tuning: Half-Step Down Eb Ab Db Gb Bb eb
                                                      Down Stroke
e|---------------------------------------------------------------------------|
B|------------4--3----4-------------4--2----1----------0---------------------|
G|---------1----------3----------1----------------4----0---------------------|
D|------3-------------1-------3----------------3-------2---------------------|
A|-----------------------------------------------------2---------------------|
E|---1---------------------1---------------------------0----0--0--3----------|
                               Up Stroke
e|---------------------------------------------------------------------------|
B|------------3-------------4----1-------------4--3----4-------------4--3----|
G|---------3-------------3-------1----------1----------3----------1----------|
D|------3-------------4----------3-------3-------------1-------3-------------|
A|---1---------------------------3-------------------------------------------|
E|-----------------2-------------1----1---------------------1----------------|
               Up Stroke                               Up Stroke
e|-----------------------------------------------------------------5---------|
B|---1-----------0-------------------------3-----------4----1----------------|
G|---------4-----0----------------------3-----------3-------1----------------|
D|------3--------2-------------------3-----------4----------3----------------|
A|---------------2----------------1-------------------------3----------------|
E|---------------0----0x--0x--3x--------------2-------------1----------------|

                  Play this 6x                        Play this 7x
e|---1-----------|-1----------|--1-------------------|-1----------|----------|
B|---x-----2-----|-------2----|------2---------------|-------2----|----------|
G|---3--3-----3--|----3-----3-|----3---3-------3-----|----3-----3-|----------|
D|---3-----------|------------|--------------6-------|------------|----------|
A|---------------|------------|------------3---------|------------|----------|
E|---------------|------------|----------4-----------|------------|----------|
                        Play this 6x               Up Stroke
e|---1-----------------|-1----------|--1-------------1-----------------------|
B|-------2-------------|-------2----|------2---4-----1-----------------------|
G|-----3---3-------3---|----3-----3-|----3---3-------1-----------------------|
D|---------------6-----|------------|----------------3-----------------------|
A|-------------3-------|------------|----------------3-----------------------|
E|-----------4---------|------------|----------------1-----------------------|
    (Pretty Harp)       Up Stroke(Guitar)  (Pretty Harp)
e|---------8--6-------|---1--------------|---------8--6----------------------|
B|------6--------9--8-|---1--------------|------6--------9--8----------------|
G|---5--------------8-|---1--------------|---5--------------8----------------|
D|--------------------|---3--------------|-----------------------------------|
A|--------------------|---3--------------|-----------------------------------|
E|--------------------|---1--------------|-----------------------------------|
                            Main Lead of the Song (Can be played an octave down)
e|--------------------11--13-|---15--16--20--18--16--15------15--16--15------|
B|-----------------9---------|---------------------------16------------------|
G|----------8--10------------|-----------------------------------------------|
D|------10-------------------|-----------------------------------------------|
A|---8-----------------------|-----------------------------------------------|
E|---------------------------|-----------------------------------------------| 

e|--15--16--20--18--16--15-------------------15--18--17--15--14---17--13-----|
B|-------------------------15--16--17--16-17---------------------------------|
G|---------------------------------------------------------------------------|
D|---------------------------------------------------------------------------|
A|---------------------------------------------------------------------------|
E|---------------------------------------------------------------------------| 

e|17--20-------------------21--20----------20-----------------21-20----------|
B|--------21------21-23h-----------19--21------21------21-23h-------19-21-18-|
G|------------22-----------------------------------22------------------------|
D|---------------------------------------------------------------------------|
A|---------------------------------------------------------------------------|
E|---------------------------------------------------------------------------| 
    Main Lead of the Song(One Octave Lower)
e|---3--4--8--6--4--3-----3--4--3---3--4--8--6--4--3------------------3--6---|
B|---------------------4------------------------------3--4--5---4--5---------|
G|---------------------------------------------------------------------------|
D|---------------------------------------------------------------------------|
A|---------------------------------------------------------------------------|
E|---------------------------------------------------------------------------| 

e|---5--3--2--5--1---5---8----------------9--8--------8----------------9--8--|
B|--------------------------9------9-11h--------7--9-----9------9-11h--------|
G|-----------------------------10---------------------------10---------------|
D|---------------------------------------------------------------------------|
A|---------------------------------------------------------------------------|
E|---------------------------------------------------------------------------| 
                 And that is it :)
e|---------------------------------------------------------------------------|
B|---7--9--6-----------------------------------------------------------------|
G|---------------------------------------------------------------------------|
D|---------------------------------------------------------------------------|
A|---------------------------------------------------------------------------|
E|---------------------------------------------------------------------------| 
************************************

| /   slide up
| \   slide down
| h   hammer-on
| p   pull-off
| ~   vibrato
| +   harmonic
| x   Mute note
| b   Bend
| pb  Pre-bend
| br  Bend release
| pbr Pre-bend release
| brb Bend release bend

************************************
Suggest correction
Creating personal tab
Creating personal tab
You can edit any tab online and save it as your Personal.

You can edit, replace or remove any tab part or add personal notes – all changes will be seen only by you.

Personal tabs can be accessed anytime from any device, even offline.
Learn more »
Give kudos to tab author, rate the tab!
1 2 3 4 5
comments
print report bad tab
guest
Wanna post a correction for this tab? Suggest correction