Oops, an error
Loading. Please wait.

Age Of Empires Theme tab

version 1
version 1

Whole song

Interactive

1,613 views 1 this week
1 commentread comment
1 2 3 4 5
3 more votes to show rating
add to favorites
×
Save as Personal and add changes to this tab that will be seen only by you. Learn more ›
×
You can save this tab as Personal to edit and correct it or add notes. All changes will be seen only by you. Learn more »
launch autoscroll
font size
0
reset
how to read this tab
guitar tuner
edit
Autoscroll
slow
fast
+/-
esc
set tempo
stop
Author
Unregistered
This is just a little part of the background music.

I came up with:

e-------0---------------0-----7--8---
b---1-3---3-1-0--1--1-3---3-1-8--10--
g-2-----------0--2-------------------
d-2-----------0--2-------------------
a-0-----------2--0-------------------
E-------------3----------------------

e-------0---------------0-----7--8---
b---1-3---3-1-0--1--1-3---3-1-8--10--
g-2-----------0--2-------------------
d-2-----------0--2-------------------
a-0-----------2--0-------------------
E-------------3----------------------

e-------0---------------0-----7--8---
b---1-3---3-1-0--1--1-3---3-1-8--10--
g-2-----------0--2-------------------
d-2-----------0--2-------------------
a-0-----------2--0-------------------
E-------------3----------------------
Suggest correction
Creating personal tab
Creating personal tab
You can edit any tab online and save it as your Personal.

You can edit, replace or remove any tab part or add personal notes – all changes will be seen only by you.

Personal tabs can be accessed anytime from any device, even offline.
Learn more »
Give kudos to tab author, rate the tab!
1 2 3 4 5
comments
print report bad tab
1 comment total.
0 reply
cooper17 162 Mar 28, 2016 11:48 PM

what in the name of heaven is this?

guest
Wanna post a correction for this tab? Suggest correction