Oops, an error
Loading. Please wait.

American Mcgees Alice - Time To Die Tab

606 views 1 this week
no commentswrite comment
1 2 3 4 5
please rate
add to favorites
launch autoscroll
font size
0
reset
how to read this tab
guitar tuner
Autoscroll
slow
fast
+/-
esc
set tempo
stop
Help us to improve Ultimate-Guitar.com Take our survey!
×
Author
Time to Die by Chris Vrenna from American McGee's Alice.

let ring the last note of each bar

e|---------7----7-8-10------------|
b|-8--8-10---8--------------------|
G|--------------------------------|
D|--------------------------------|
A|--------------------------------|
E|--------------------------------|

e|---------7----------------------|
b|-8--8-10---8-10-----------------|
G|--------------------------------|
D|--------------------------------|
A|--------------------------------|
E|--------------------------------|

e|---------7----7-8-10------------|
b|-8--8-10---8--------------------|
G|--------------------------------|
D|--------------------------------|
A|--------------------------------|
E|--------------------------------|

e|-10-7---7-----------------------|
b|-------8--10-8------------------|
G|--------------------------------|
D|--------------------------------|
A|--------------------------------|
E|--------------------------------|
Suggest correction
Give kudos to tab author, rate the tab!
1 2 3 4 5
comments
print report bad tab
guest
You may want to rate the tab now too:
select rating
Please do not post tabs as comments. Select "correction" instead!