Oops, an error
Loading. Please wait.

Animal Crossing Wild World Theme tab

version 1
version 1

Whole song

  • Fixed the intro in the song, Version 1 was missing... Show more

Interactive

60,290 views 105 this week
5 commentsread comments
1 2 3 4 5
x 28
add to favorites
×
Save as Personal and add changes to this tab that will be seen only by you. Learn more ›
×
You can save this tab as Personal to edit and correct it or add notes. All changes will be seen only by you. Learn more »
launch autoscroll
font size
0
reset
how to read this tab
guitar tuner
edit
Autoscroll
slow
fast
+/-
esc
set tempo
stop
Author
Difficulty
Animal Crossing: Wild World Title Theme                     

I'm very proud of this! I haven't found this tab anywhere. 
                                                                   KazumiTotaka
Guitar



      E  E  E  Q    Q    E     E  E  Q    Q    E  E     
e|-------------------------|-------------------------||
B|-------------------------|-------------------------||
G|*--------6--7---------6--|------------------------*||
D|*------------------------|--4--7--9---------------*||
A|------7------------------|-------------------------||
E|---5---------------------|-------------------------||


    E  E  E  E  Q    E  E      E  E  E   E  E  E  E  E     E  Q    Q    E  E  E   
e|-----------7--5-------4p--|--2------------------------|------------------------|
B|--------------------------|--------5p--3-----7--5-----|------------------------|
G|--7--6--9-----------------|---------------------------|------------------------|
D|--------------------------|---------------------------|--7--7------------------|
A|--------------------------|---------------------------|------------------------|
E|--------------------------|---------------------------|------------------------|


    E  E  E  E  S E   E   S S S     Q    Q     Q    Q    E   
e|-----------5----9--10~--------|--10----9----12----7----5--|
B|--7--5------------------------|---------------------------|
G|------------------------------|---------------------------|
D|------------------------------|---------------------------|
A|------------------------------|---------------------------|
E|------------------------------|---------------------------|


    H        E  E  E  E     Q    E  H        E     E  E  E  E  Q    E  E   
e|--9--------4--5--4--2--|--0----0--5-----------|--9-----7-----0----0--5--|
B|-----------------------|----------------------|-------------------------|
G|-----------------------|----------------------|-------------------------|
D|-----------------------|----------------------|-------------------------|
A|-----------------------|----------------------|-------------------------|
E|-----------------------|----------------------|-------------------------|


    W                   E  E  E  E  E  E  E  E     W                 
e|--L----------------|--0--9--7--9--7--0-----0--|--5----------------|
B|-------------------|--------------------------|-------------------|
G|-------------------|--------------------------|-------------------|
D|-------------------|--------------------------|-------------------|
A|-------------------|--------------------------|-------------------|
E|-------------------|--------------------------|-------------------|


    E  E   E   E  Q    Q       Q    E  H        E    
e|--7--9--11--13--9---------|-------6--7-----------||
B|---------------------7----|--7-------------------||
G|--------------------------|----------------------||
D|--------------------------|----------------------||
A|--------------------------|----------------------||
E|--------------------------|----------------------||


************************************

| p  Pull-off
| ~  Vibrato
| *  reprise
| L  let ring

************************************

            
            
Suggest correction
Creating personal tab
Creating personal tab
You can edit any tab online and save it as your Personal.

You can edit, replace or remove any tab part or add personal notes – all changes will be seen only by you.

Personal tabs can be accessed anytime from any device, even offline.
Learn more »
comments
print report bad tab
5 comments total. Showing first comments.
+4 reply
Sheen247 10 Nov 15, 2008 02:48 AM

Add this as the intro. Apart from that, perfect tab :}

E E E Q Q E E E Q Q E E
E||-------------------------|-------------------------||
B||-------------------------|-------------------------||
G||*--------6--7---------6--|------------------------*||
D||*------------------------|--4--7--9---------------*||
A||------7------------------|-------------------------||
E||---5---------------------|-------------------------||

E||-------------------------|-------------------------||
B||-------------------------|-------------------------||
G||*--------6--7---9--7---6-|7-9-4---9---------------*||
D||*------------------------|------------------------*||
A||------7------------------|-------------------------||
E||---5---------------------|-------------------------||

+2 reply
overdrive11 31 Sep 11, 2009 02:37 PM

I searched "animal crossing", not thinking that I would find anything, and even if i did, I knew it wouldn't be that acurate.
You should definately be proud of this tab, and I'm thankful for it

+1 reply
overdrive11 31 Sep 11, 2009 03:23 PM

you kind of missed one part of the intro that goes like this
E-----------------------------------------------7--5----
B--------------------------5--------5--------5----------
G--------6--7--------6--7-----4--------7--6-------------
D-------------------------------------------------------
A-----7-------------------------------------------------
E--5----------------------------------------------------
and you continue on from there. great job on the rest though

guest
You may want to rate the tab now too:
select rating
Wanna post a correction for this tab? Suggest correction