Oops, an error
Loading. Please wait.

Assassins Creed 2- Ezios Family Tab

1,504 views 57 this week
no commentswrite comment
1 2 3 4 5
x 6
add to favorites
launch autoscroll
font size
0
reset
how to read this tab
guitar tuner
×
Best way to learn
"Assassins Creed 2- Ezios Family"
Autoscroll
slow
fast
+/-
esc
set tempo
stop
Author
Difficulty
[Intro]

e|---------------------------------------------------------------------------|
B|---8-10-8---8-10-8---8-10-8---8-10-8---------------------------------------|
G|-7--------7--------7--------7----------------------------------------------|
D|---------------------------------------------------------------------------|
A|---------------------------------------------------------------------------|
E|---------------------------------------------------------------------------|

e|------------------------------------------10-12-13-15-17-------------------|
B|---6-8-10---6-8-6--6-8-10--6-8-6---6-8-10----------------------------------|
G|-7--------7-------7------7-------7-----------------------------------------|
D|---------------------------------------------------------------------------|
A|---------------------------------------------------------------------------|
E|---------------------------------------------------------------------------|


[Violin Part On Guitar]

e|-5-10-10-5-5-6-5-----------------------10------13-10-----------------------|
B|-----------------8-10-6-8-10-11-10---6---10-11------10---------------------|
G|------------------------------------------------------10-9-----------------|
D|----------------------------------12---------------------------------------|
A|---------------------------------------------------------------------------|
E|---------------------------------------------------------------------------|

e|-5-6-5-5-1-1\-5-6-5-5-10-13------------------------------------------------|
B|---------------------------------------------------------------------------|
G|---------------------------------------------------------------------------|
D|---------------------------------------------------------------------------|
A|---------------------------------------------------------------------------|
E|---------------------------------------------------------------------------|


[Outro]

e|------------------------------------------10-12-13-15-17-------------------|
B|---6-8-10---6-8-6--6-8-10--6-8-6---6-8-10----------------------------------|
G|-7--------7-------7------7-------7-----------------------------------------|
D|---------------------------------------------------------------------------|
A|---------------------------------------------------------------------------|
E|---------------------------------------------------------------------------|



************************************

| \  Slide down

************************************
Suggest correction
comments
print report bad tab
guest
You may want to rate the tab now too:
select rating
Wanna post a correction for this tab? Suggest correction