Oops, an error
Loading. Please wait.

Assassins Creed 2 - Venice Rooftops Tab

36,813 views 21 this week
no commentswrite comment
1 2 3 4 5
excellent!
x 5
add to favorites
launch autoscroll
font size
0
reset
how to read this tab
guitar tuner
Autoscroll
slow
fast
+/-
esc
set tempo
stop
Help us to improve Ultimate-Guitar.com Take our survey!
×
Author
Jesper Kyd - Assassin's Creed II - Venice Rooftops

Tabbed By: FRr3AkOnALEaSh (smokin_05@hotmail.com)

Instruments (Tabbed for Guitar of course):

Guitar 1: Acoustic Tuned Standard (E A D G B E)
Guitar 2: Electric Tuned To Drop D (D A D G B E)
Strings
Violin
Choir

Riff 1 (Guitar 2)(Clean)(Tremolo + Reverb)(0:00 - 0:08)
E|---------------------------------------------------------------------------|
B|---------------------------------------------------------------------------|
G|--7-7-7-7-7-7-7-7-9-9-9-9-9-9-9-9-9-9-9-9-9-9-9-9-10-10-10-10-10-10-10-10--|
D|---------------------------------------------------------------------------|
A|---------------------------------------------------------------------------|
E|---------------------------------------------------------------------------|

Riff 2 (Guitar 1)(Clean)(0:08 - 0:15)
E|---------------------------------------|
B|--3~33~333-5~55~5555~55~555------6666--|
G|--2~22~222-4~44~4444~44~444-5~55-5555--|
D|--0~00~000-2~22~2222~22~222-5~55-3333--|
A|----------------------------3~33-------|
E|---------------------------------------|

Riff 3 (Guitar 1)(Clean)(0:15 - 0:24)
E|---------------------------------------|
B|--3~33~333-5~55~555-6~66~666-8~88~888--|
G|--2~22~222-4~44~444-5~55~555-7~77~777--|
D|--0~00~000-2~22~222-3~33~333-5~55~555--|
A|---------------------------------------|
E|---------------------------------------|

Riff 4 (Guitar 2)(0:24 - 0:39)
E|----------------|
B|----------------|
G|----------------|
D|--5/7-0--7\5/7--|
A|--5/7-0--7\5/7--|
D|--5/7-0--7\5/7--|

Riff 5 (Guitar 1)(0:31 - 0:39)
E|--5~55~555-7~77~7777~77~777-8~88~888--|
B|--5~55~555-7~77~7777~77~777-8~88~888--|
G|--2~22~222-4~44~4444~44~444-5~55~555--|
D|--------------------------------------|
A|--------------------------------------|
E|--------------------------------------|

Riff 6 (Guitar 2)(Distortion + Reverb)(0:39 - 0:54
E|----------------------------------|
B|----------------------------------|
G|----------------------------------|
D|----------------------------------|
A|----------------------------------|
D|--0~--7~--5~--7~--0~--7~--5~--3~--|

Riff 7 (Strings)(0:54 - 1:09)
E|-------|---------------------|-------------|
B|--15~--|----15-17-18-17-15~--|--18-17-15~--|
G|-------|--17-----------------|-------------|
D|-------|---------------------|-------------|
A|-------|---------------------|-------------|
E|-------|---------------------|-------------|

Riff 8 (Choir)(1:25 - 1:40)
E|------------------------------|
B|------------------------------|
G|--------5-7~-----5-7~---------|
D|--0~-7~--------7-------7~-----|
A|--------------------------8~--|
E|------------------------------|

Riff 9 (Choir + Violin)(1:40 - 1:48)
E|-----------------------------------------|
B|-----------------------------------------|
G|------------------7~--9~--10~--12~--14~--|
D|--0~--3~--5~--7~-------------------------|
A|-----------------------------------------|
E|-----------------------------------------|

Riff 10 (Strings)(2:12 - 2:19)
E|-----------------------------|
B|-----------------------------|
G|-----------------------------|
D|-----------------------------|
A|-----------------------------|
D|--0~---7~---3~---5~---2~-3~--|

Riff 11 (Strings)(2:19 - 2:26)
E|---------------------------|
B|---------------------------|
G|---------------------------|
D|---------------------------|
A|---------------------------|
D|--0~---5~---2~---3~---0~---|

Riff 12 (Violin)(2:42 - 2:58)
E|-----------------------------------------------------------------------|
B|-----------------------------------------------------------------------|
G|--17~-16-17-16~--------------------------------------------------------|
D|----------------17~-19~--15-17-15~--14~-12~--14~-15~--14-15-14~--12~---|
A|-----------------------------------------------------------------------|
E|-----------------------------------------------------------------------|

NOTE: Listen to the track to match up timing and rhythm with each riff. Note that
some riffs are played again throughout the song, match it u and resort back to
once the riff originated on the page. Enjoy!
Suggest correction new What's this?
You can suggest a correction to this tab. Community and Mods will review your correction and vote to approve or reject it.
comments
print report bad tab
guest
You may want to rate the tab now too:
select rating
Please do not post tabs as comments. Select "correction" instead!