Oops, an error
Loading. Please wait.

Banjo-Kazooie - Pause Screen Tab

7,742 views 3 this week
1 commentread comment
1 2 3 4 5
x 6
add to favorites
launch autoscroll
font size
0
reset
how to read this tab
guitar tuner
Autoscroll
slow
fast
+/-
esc
set tempo
stop
Help us to improve Ultimate-Guitar.com Take our survey!
×
Author
Difficulty
intermediate
Pause Screen
Banjo-Kazooie
Composed by Grant Kirkhope
Tabbed by Richard Schaefer (richard@gametabs.net)
9/9/06

e---------------------------------------------------------------------|
B--1---------1---------1---------1------------------------------------|
G-----0-2-0-----0-2-0-----0-1-0-----0-1-0--0-----2-0-----0-----2-0----|
D---------------------------------------------2-------2-----2-------2-|
A---------------------------------------------------------------------|
E---------------------------------------------------------------------|

e----------------------------------------------------------------------|
B--1---------1---------1---------1-------------------------------------|
G-----0-2-0-----0-2-0-----0-1-0-----0-1-0--0--0--2-3--2--0--3--0-------|
D-----------------------------------------------------------------2--3-|
A----------------------------------------------------------------------|
E----------------------------------------------------------------------|

e--13----------0----13------------------------|
B--14------------2--14--2--1-2-4-1-----3-1----|
G---------0-2-----------------------2-------2-|
D------3--------------------------------------|
A---------------------------------------------|
E---------------------------------------------|

e----------5--------3----13--1--0-1-------------4--1--1-3-5--3--1--5--1----|
B--6--5-6---------5---6--14---------4-2--2-1-2---------------------------1-|
G------------5--7----------------------------------------------------------|
D--------------------------------------------------------------------------|
A--------------------------------------------------------------------------|
E--------------------------------------------------------------------------|

e--3-3-3-3--5-7--5-3-----3-3-3-3--5-6--5-3--0----3--5-3-------------------------|
B---------------------3-----------------------3----------3---------3------------|
G-----------------------------------------------------------4--3-4----4--3-4--0-|
D-------------------------------------------------------------------------------|
A-------------------------------------------------------------------------------|
E-------------------------------------------------------------------------------|

e------------------------------------------------0-1--0-----1-------|
B--1---------1---------1---------1---------3--3----------3-----3----|
G-----0-2-0-----0-2-0-----0-1-0-----0-1-0-------------------------2-|
D-------------------------------------------------------------------|
A-------------------------------------------------------------------|
E-------------------------------------------------------------------|

Repeat from beginning
Suggest correction
comments
print report bad tab
1 comment total.
-2 reply
derpdragon 100 Oct 29, 2008 03:53 PM

the only part that sounded right was

B--1---------1---------1
G-----0-2-0-----0-2-0-

guest
You may want to rate the tab now too:
select rating
Wanna post a correction for this tab? Suggest correction