Oops, an error
Loading. Please wait.

Battlefield 1942 Theme tab

version 1
version 1

Whole song

Interactive

Video

  • It's a Fingerstyle Arrangement including both melo... Show more
100,923 views 189 this week
10 commentsread comments
1 2 3 4 5
x 15
add to favorites
×
Save as Personal and add changes to this tab that will be seen only by you. Learn more ›
×
You can save this tab as Personal to edit and correct it or add notes. All changes will be seen only by you. Learn more »
launch autoscroll
font size
0
reset
how to read this tab
guitar tuner
edit
Autoscroll
slow
fast
+/-
esc
set tempo
stop
Author
Battlefield 1942 Theme
Tabbed by Stannerjnr


There are several different aspects of this song.

The main riff of this theme is:

E|---------|---------|
B|---------|---------|
G|-----5-5-|-4-4-2-2-|  This riff is repeated throughout.
D|-5-5-7-7-|-5-5-4-4-|
A|-7-7-----|---------|
E|---------|---------|

The bass line of the theme is:

G|---------|---------|
D|---------|---------|  This is also repeated throughout.
A|---------|---------|
E|-00005555|-33332222|

The solo of the theme goes:

E|---------|---------|--------|---------|---------------|---------------|
B|---------|---------|--------|---------|--------10-----|---------------|
G|-9-------|---11-7--|-9------|----12-11|-9-11-12--12-11|-12-11-9-11-7--|
D|---------|-------9-|--------|---------|---------------|--------------9|
A|---------|---------|--------|---------|---------------|---------------|
E|---------|---------|--------|---------|---------------|---------------|

E|---------|---------|--------|---------|---------------|---------------|
B|---------|---------|--------|---------|--------10-----|---------------|
G|-9-------|---11-7--|-9------|----12-11|-9-11-12--12-11|-12-11-9-11-7--|
D|---------|-------9-|--------|---------|---------------|--------------9|
A|---------|---------|--------|---------|---------------|---------------|
E|---------|---------|--------|---------|---------------|---------------|

E|---------------|---------------|---------------|---------------|
B|--------10-----|---------------|--------10-----|---------------|
G|-9-11-12--12-11|-12-11-9-11-7--|-9-11-12--12-11|-12-11-9-11-7--|
D|---------------|--------------9|---------------|--------------9|
A|---------------|---------------|---------------|---------------|
E|---------------|---------------|---------------|---------------|


The other way you can also play it is with the chords:

   Em  Am    G   Cm7

E|-0---0---|-3---3---|
B|-0---1---|-0---4---|
G|-0---2---|-0---3---|
D|-2---2---|-0---5---|
A|-2---0---|-2---3---|
E|-0-------|-3---3---|

            
            
Suggest correction
Creating personal tab
Creating personal tab
You can edit any tab online and save it as your Personal.

You can edit, replace or remove any tab part or add personal notes – all changes will be seen only by you.

Personal tabs can be accessed anytime from any device, even offline.
Learn more »
comments
print report bad tab
10 comments total. Showing first comments.
+2 reply
gunnarflax 10 May 26, 2007 03:02 AM

The solo part of the song is inaccurate, you have only the first part and completely excluded the part where the solo comes to the crescendo when the melody goes on the higher tones.

-1 reply
[[.:jess:.]] 83 Jun 30, 2007 01:25 PM

true to what gunnarflax said.
but thank you for this regardless.
this friggen song always go stuck in my head while waiting for a map to load.

0 reply
[[.:jess:.]] 83 Jul 07, 2007 04:31 PM

oh and i think chords should go Em Am Gm Bm, but i may be wrong...

guest
You may want to rate the tab now too:
select rating
Wanna post a correction for this tab? Suggest correction