Oops, an error
Loading. Please wait.

Battlefield 1942 Theme Tab

version 4
version 4

Whole song

Interactive

Video

  • It's a Fingerstyle Arrangement including both melo... Show more
829 views 36 this week
no commentswrite comment
1 2 3 4 5
x 3
add to favorites
launch autoscroll
font size
0
reset
how to read this tab
guitar tuner
×
Best way to learn
"Battlefield 1942 Theme"
Autoscroll
slow
fast
+/-
esc
set tempo
stop
Author
About this tab version
Fingerstyle arrangement with melody and harmony with just one guitar. Percussive elements included in video. Was this info helpful? Yes No
Battlefield 1942 Theme - Arrangement Alex Tea

[Part A] (Rhytm 3/4)
[Chorus] Strummed:

       Em           Am          Em         Bm          Em           Am         Em          Bm
E|--0--0--0--0--|--0--0--|--0--0--0--0--|--2--2--|--0--0--0--0--|--0--0--|--0--0--0--0--|--2--2--|
B|--0--0--0--0--|--1--1--|--0--0--0--0--|--3--3--|--0--0--0--0--|--1--1--|--0--0--0--0--|--3--3--|
G|--0--0--0--0--|--2--2--|--0--0--0--0--|--4--4--|--0--0--0--0--|--2--2--|--0--0--0--0--|--4--4--|
D|--2--2--2--2--|--2--2--|--2--2--2--2--|--4--4--|--2--2--2--2--|--2--2--|--2--2--2--2--|--4--4--|
A|--2--2--2--2--|--0--0--|--2--2--2--2--|--2--2--|--2--2--2--2--|--0--0--|--2--2--2--2--|--2--2--|
E|--0--0--0--0--|--------|--0--0--0--0--|--0--0--|--0--0--0--0--|--------|--0--0--0--0--|--0--0--|

       Em          Am           G           A/D          Em           A          G            A/D
E|--0--0--0--0--|--0--0--|--3--3--3--3--|--------|--0--0--0--0--|--0--0--|--3--3--3--3--|--------|
B|--0--0--0--0--|--1--1--|--3--3--3--3--|--3--3--|--0--0--0--0--|--1--1--|--3--3--3--3--|--3--3--|
G|--0--0--0--0--|--2--2--|--4--4--4--4--|--2--2--|--0--0--0--0--|--2--2--|--4--4--4--4--|--2--2--|
D|--2--2--2--2--|--2--2--|--5--5--5--5--|--0--0--|--2--2--2--2--|--2--2--|--5--5--5--5--|--0--0--|
A|--2--2--2--2--|--0--0--|--5--5--5--5--|--0--0--|--2--2--2--2--|--0--0--|--5--5--5--5--|--0--0--|
E|--0--0--0--0--|--------|--3--3--3--3--|--------|--0--0--0--0--|--------|--3--3--3--3--|--------|

[Verse] Picked:

       Em          Am         Em            Bm             Em         Am           Em           Bm
E|--------------|--------|--------------|-----------|--------------|--------|--------------|-----------|
B|--0--0--0--0--|--1--1--|--0--0--0--0--|--3--------|--0--0--0--0--|--1--1--|--0--0--0--0--|--3--------|
G|--0--0--0--0--|--2--2--|--0--0--0--0--|--4--------|--0--0--0--0--|--2--2--|--0--0--0--0--|--4--------|
D|--2--2--2--2--|--2--2--|--2--2--2--2--|--4-----0--|--2--2--2--2--|--2--2--|--2--2--2--2--|--4-----0--|
A|--------------|--0--0--|--------------|-----2-----|--------------|--0--0--|--------------|-----2-----|
E|--0--0--0--0--|--------|--0--0--0--0--|-----------|--0--0--0--0--|--------|--0--0--0--0--|-----------|

      Em           Am         G            A/D           Em          Am           G           A/D
E|--------------|--------|--------------|--------|--------------|--------|--------------|--------2/3\2----|
B|--0--0--0--0--|--1--1--|--0--0--0--0--|--3--3--|--0--0--0--0--|--1--1--|--0--0--0--0--|--3--3-----------|
G|--0--0--0--0--|--2--2--|--0--0--0--0--|--2--2--|--0--0--0--0--|--2--2--|--0--0--0--0--|--2--2-----------|
D|--2--2--2--2--|--2--2--|--0--0--0--0--|--0--0--|--2--2--2--2--|--2--2--|--0--0--0--0--|--0--0-----------|
A|--------------|--0--0--|--------------|--0--0--|--------------|--0--0--|--------------|--0--0-----------|
E|--0--0--0--0--|--------|--3--3--3--3--|--------|--0--0--0--0--|--------|--3--3--3--3--|-----------------|

[Part B] (Rhytm 3/4)

     Em            Am        Em             Bm             Em         Am         Em             Bm
E|--0-----------|--------|--------------|--2--------|--0-----------|--------|--------------|--2--------2h3p2-|
B|--------------|--1--1--|--0--0--0--0--|-----3-----|--------------|--1--1--|--0--0--0--0--|-----3-----------|
G|-----0--0--0--|--2--2--|--0--0--0--0--|--------4--|-----0--0--0--|--2--2--|--0--0--0--0--|--------4--------|
D|-----2--2--2--|--2--2--|--2--2--2--2--|-----4-----|-----2--2--2--|--2--2--|--2--2--2--2--|-----4-----------|
A|-----2--2--2--|--0--0--|--------------|--2--------|-----2--2--2--|--0--0--|--------------|--2--------------|
E|--0--0--0--0--|--------|--0--0--0--0--|-----------|--0--0--0--0--|--------|--0--0--0--0--|-----------------|

        Em               Am                 G              D
E|--0-----0--2--3--|--5-----5--3p2--|--3-----3--2--3--|--2--------|
B|-----0--0-----0--|--5--5----------|--0--0--0-----0--|--3--3--0--|
G|-----0--0-----0--|--5--5----------|--0--0--0-----0--|--2--2-----|
D|-----------------|----------------|-----------------|--0--------|
A|-----------------|--0-------------|-----------------|-----------|
E|--0-----0--------|----------------|--3-----3--------|-----------|

       Em                Am                G                  D
E|--0--------------|--5-----------|--7------7--5h7p5-----|--5--7--0--|
B|-----0--5--7--8--|--5--5--8--7--|--8---8------------8--|--7-----0--|
G|-----0--0-----0--|--5--5--------|--7---7---------------|--7--------|
D|-----------------|-----7--------|------9---------------|--0--------|
A|-----------------|--0-----------|--10------------------|-----------|
E|--0-----0--------|--------------|----------------------|-----------|

       Am             Dm            Am           Em
E|--8--------5--|--10--10-----|-----5--5--5--|--7--------|
B|--5--5--5--5--|--10--10--0--|-----5--5--5--|-----8-----|
G|--5--5--5--5--|--10--10-----|--5--5--5--5--|--------9--|
D|-----7--7-----|--0----------|--------------|-----------|
A|--0-----------|-------------|--0-----------|--7--------|
E|--------------|-------------|--------------|-----------|

      Am               Dm            Am           Em
E|--5-----------|---10--10-----|-----5--5--5--|--7-----8--7--|
B|--5--5--5--5--|---10--10--0--|-----5--5--5--|--8--8--------|
G|--5--5--5--5--|---10--10-----|--5--5--5--5--|--9-----------|
D|--------------|---0----------|--------------|--------------|
A|--0-----------|--------------|--0-----------|--------------|
E|--------------|--------------|--------------|--------------|

     Am                   Dm               C               G
E|--5-----5--7--8--|--10------8--7--|--8-----8--7--5--|--7--5-----|
B|--5--5--5-----5--|--10--10--------|--5--5-----------|--------8--|
G|--5--5--5--------|--10--10--------|--5--5-----------|-----------|
D|-----------------|--0----------0--|-----------------|--5--------|
A|--0-----0--------|----------------|-----------------|-----------|
E|-----------------|----------------|-----------------|-----------|

         Am                 Dm                C                G
E|--5-----------------|--13--12--13--|--12--10--12--5--3--|--2--0-----|
B|--5--5--10--12--13--|--10----------|--------------------|--3-----3--|
G|--5--5--------------|--10----------|--------------------|--2--------|
D|--------------------|--0-----------|--10----------------|--0--------|
A|--0-----------------|--------------|--------------------|-----------|
E|--------------------|--------------|--------------------|-----------|

[Part C] (Rhytm 4/4)
[Bridge]

                Em                                   Gm
E|--3--------3--------5-----|--6--------6--------5-----|
B|-----5--------5--------5--|-----3--------3--------3--|
G|--------0--------0--------|--------3--------3--------|     (4x)
D|--------------------------|--------------------------|
A|--------------------------|--------------------------|
E|--0-----------------------|--3-----------------------|

               Gm                                    A#m
E|--6--------6--------5-----|--9--------9--------8-----|
B|-----3--------3--------3--|-----6--------6--------6--|
G|--------3--------3--------|--------6--------6--------|     (4x)
D|--------------------------|--------------------------|
A|--------------------------|--------------------------|
E|--3-----------------------|--6-----------------------|

             
E|---------------------------------|
B|---------------------------------|
G|--3h4p3h4p3h4p3h4p3h4p3h4p3h4p3--|
D|---------------------------------|
A|---------------------------------|
E|---------------------------------|

[Part D] (Rhytm 3/4)
[Chorus] Strummed:

       Em          Am          Em          Bm           Em          Am          Em         Bm  
E|--0--0--0--0--|--0--0--|--0--0--0--0--|--2--2--|--0--0--0--0--|--0--0--|--0--0--0--0--|--2--2--|
B|--0--0--0--0--|--1--1--|--0--0--0--0--|--3--3--|--0--0--0--0--|--1--1--|--0--0--0--0--|--3--3--|
G|--0--0--0--0--|--2--2--|--0--0--0--0--|--4--4--|--0--0--0--0--|--2--2--|--0--0--0--0--|--4--4--|
D|--2--2--2--2--|--2--2--|--2--2--2--2--|--4--4--|--2--2--2--2--|--2--2--|--2--2--2--2--|--4--4--|
A|--2--2--2--2--|--0--0--|--2--2--2--2--|--2--2--|--2--2--2--2--|--0--0--|--2--2--2--2--|--2--2--|
E|--0--0--0--0--|--------|--0--0--0--0--|--0--0--|--0--0--0--0--|--------|--0--0--0--0--|--0--0--|


       Em          Am           G           D           Em          Am      G  Am    E
E|--0--0--0--0--|--0--0--|--3--3--3--3--|--2--2--|--0--0--0--0--|--0--0--|--3--0--|--0--|
B|--0--0--0--0--|--1--1--|--3--3--3--3--|--3--3--|--0--0--0--0--|--1--1--|--3--1--|--0--|
G|--0--0--0--0--|--2--2--|--4--4--4--4--|--2--2--|--0--0--0--0--|--2--2--|--4--2--|--0--|
D|--2--2--2--2--|--2--2--|--5--5--5--5--|--0--0--|--2--2--2--2--|--2--2--|--5--2--|--2--|
A|--2--2--2--2--|--0--0--|--5--5--5--5--|--0--0--|--2--2--2--2--|--0--0--|--5--0--|--2--|
E|--0--0--0--0--|--------|--3--3--3--3--|--------|--0--0--0--0--|--------|--3-----|--0--|



(/) Slide Up  (\) Slide Down  (h) Hammer On  (p) Pull Off

Order: Part A, Part B, Part B, Part C, Part D


Tabs and Arrangement made by Alex Tea. 

The video to the arrangement is up on Youtube: 
"Battlefield 1942 Theme - Fingerstyle Guitar + TABS (by Alex Tea)"

Link: https://www.youtube.com/watch?v=nc4s3ic1sA8

In the description to the video you'll find handwritten tabs with a little more detailled techniques.

Have Fun Playing,
Cheers Alex

Suggest correction
Give kudos to tab author, rate the tab!
1 2 3 4 5
comments
print report bad tab
guest
You may want to rate the tab now too:
select rating
Wanna post a correction for this tab? Suggest correction