Oops, an error
Loading. Please wait.

Battlefield 2 - Chinese Theme Tab

5,926 views 24 this week
no commentswrite comment
1 2 3 4 5
excellent!
x 2
add to favorites
launch autoscroll
font size
0
reset
how to read this tab
guitar tuner
Tab Pro tools
  • play this tab
  • loop segment
  • change instrument
  • show fretboard
  • metronome
Autoscroll
slow
fast
+/-
esc
set tempo
stop
Contributor
Difficulty
novice
This is the tune you hear when Battlefield 2 loads and your the Chinese, so I figured 
should be called the "Chinese Theme." I'm surprised it wasn't up here on UG, so I took 
into my own hands.

Standard Tuning (EADGBe)

Tips: Read this if you want to get the tune right!!! Otherwise skim down...
1.) For the slide, let the original note ring for a second, then slide it up and pull 
string down a bit, and you might also want to wobble it a bit (vibrato for you who know 
I'm talking about).
2.) For the hammer on/pull of part on the 6 & 8 frets, you have to make it snappy or 
mess up the rhythm. Technically, I think their 16th notes but I'm not sure.
3.) In the outro let the last note fade (it adds to the "epic-ness")

Enjoy.

(Part 1)

Intro/Main Riff
e|-------------------------------------------------------|
B|-----------------8--6h8p6--------6---------------------|
G|---0--3---5/7b-------------7---5----3------------------|
D|-------------------------------------------------------|
A|-------------------------------------------------------|
E|-------------------------------------------------------|

Outro
e|-------------------------------------------------------|
B|--3b--------1b-----------------------------------------|
G|-------3---------2-----0 (let fade)--------------------|
D|-------------------------------------------------------|
A|-------------------------------------------------------|
E|-------------------------------------------------------|

Then it repeats, except the 1b in the Outro is on the 1st (e) string.


Some other part that plays after it... (Part 2)

e|-----------------|
B|--8-----10-------|
G|-----------10-7--| Repeat x3
D|-----------------|
A|-----------------|
E|-----------------|

e|-------8-----------------------------------------------|
B|--8h10----8h10-11---8h10-10----------------------------|
G|----------------------------10--7----------------------|
D|-------------------------------------------------------|
A|-------------------------------------------------------|
E|-------------------------------------------------------|

Repeat Part 2 once, then play Part 1 again.
comments
We did not receive enough feedback on this tab! Please rate:
print report bad tab
1 2 3 4 5
I want to post or [tab]
guest
You may want to rate the tab now too:
select rating
Please do not post tabs as comments. Select "correction" instead!