Oops, an error
Loading. Please wait.

Beautiful Katamari - Harvest Of Love bass

37 views 3 this week
no commentswrite comment
1 2 3 4 5
3 more votes to show rating
add to favorites
×
Save as Personal and add changes to this tab that will be seen only by you. Learn more ›
×
You can save this tab as Personal to edit and correct it or add notes. All changes will be seen only by you. Learn more »
launch autoscroll
font size
0
reset
guitar tuner
edit
Autoscroll
slow
fast
+/-
esc
set tempo
stop
About this tab version
Pretty simple, overall. There are a few minor variations between each of the verses and choruses. Was this info helpful? Yes No
Harvest of Love
Beautiful Katamari

[Intro]
G|--------------------|
D|--------------------|
A|--------------------|
E|-0-------------/12\-|

G|-------------------------------|
D|-------------------------------|
A|-------------------------7--7--| x4
E|-0--0----0--0----0--0--7-------|

G|-------------------------------------|
D|-------------------------------------|
A|----------4-5--5--5--5--2--2--2-2--2-|
E|-2--4--5-----------------------------|

[Verse]
G|-------------------------------|
D|-------------------------------|
A|-------------------------7--7--| x3
E|-0--0----0--0----0--0--7-------|

G|------------------------------|
D|------------------------------|
A|--------6---------------------|
E|-0--0------4-5---5--5--55--57-|

G|------------------------------------------------------------------------------------------|
G|------------------------------------------------------------------------------------------|
A|-4-----4-4-------------7-7-----7-6----6-6-----6-7----------9--7-6-----6-6-----6-5-----5-5-|
E|----4-------4--2-0--7-------7-------7------7-------7--0-0----------6-------6-------5------|

G|------------------------------------|
D|------------5-----------------------|
A|---------5------5-------7-----------|
E|-5--4-3------------3-5-----5-7--7-7-|

G|-------------------------------|
D|-------------------------------|
A|-------------------------7--7--| x3
E|-0--0----0--0----0--0--7-------|

G|------------------------------|
D|------------------------------|
A|--------6---------------------|
E|-0--0------4-5---5--5--55--57-|

[Pre chorus]
G|------------------------------------------------------------------------------------------|
G|------------------------------------------------------------------------------------------|
A|-4-----4-4-------------7-7-----7-6----6-6-----6-7-----7-7--9--7-6-----6-6-----6-5-----5-5-|
E|----4-------4--2-0--7-------7-------7------7-------7---------------6-------6-------5------|

G|---------------------------------------------------|
D|---------------------------------------------------|
A|----5-4--6------7-----7-----7-----7--9-9-9--9~-----|
E|-5----------0------0-----0-----0-----------9-------|

[Chorus]
G|---------------------------------------------------------------------|
D|------------------2---2---2-2--2---1---1---1-1--1---2---2---2-2--2---|
A|-2---2---2-2--2-----2---2----2---2---1---1----1---1---2---2----2---2-|
E|---2---2----2---2----------------------------------------------------|

G|----------------------------------------------------------------------|
D|-2---2---2-2--2-------------------------------------------------------|
A|---2---2----2---2-5---5---5-5--5---4---4---4-4--4----9-9-9---9\-------|
E|--------------------5---5----5---5---4---4----4---4--------9--------2-|

G|---------------------------------------------------------------------|
D|------------------2---2---2-2--2---1---1---1-1--1---2---2---2-2--2---|
A|-2---2---2-2--2-----2---2----2---2---1---1----1---1---2---2----2---2-|
E|---2---2----2---2----------------------------------------------------|

G|--------------------------------------------------------------------|
D|-2---2---2-2--2-----------------------------------------------------|
A|---2---2----2---2-5---5---5-5--5---4---4---4-4--4-------------------|
E|--------------------5---5----5---5---4---4----4---4-2--2--2~--------|

G|----------------------------------------------------------------------|
D|----------------------------------------------------------------------|
A|-7---7---7-7--7---6---6---6-6--6---5---5---5-5--5----4---4---4-4--4---|
E|---7---7----7---7---6---6----6---6---5---5----5---5----3---3----3---3-|

G|-----------------------------------------------------------------|
D|--------------------4-3-2----------------------------------------|
A|-3---3---3-3--3---2-------------------------2--2--2--2-2---2~----|
E|---3---3----3---3----------0-3-5---5--5--5--------------2--------|

[2nd verse]
G|-----------------------------------------------------------------------|
D|-----------------------------------------------------------------------|
A|-------------------------7--7---------------------------7-7-7-9--7-----| 
E|-0--0----0--0----0--0--7---------0--0----0--0----0--0--------------7-7-|

G|-------------------------------|
D|-------------------------------|
A|-------------------------7--7--| x3
E|-0--0----0--0----0--0--7-------|

G|------------------------------|
D|------------------------------|
A|--------6---------------------|
E|-0--0------4-5---5--5--55--57-|

G|------------------------------------------------------------------------------------------|
G|------------------------------------------------------------------------------------------|
A|-4-----4-4-------------7-7-----7-6----6-6-----6-7----------9--7-6-----6-6-----6-5-----5-5-|
E|----4-------4--2-0--7-------7-------7------7-------7--0-0----------6-------6-------5------|

G|------------------------------------|
D|------------5-----------------------|
A|---------5------5-------7-----------|
E|-5--4-3------------3-5-----5-7--7-7-|

G|-------------------------------|
D|-------------------------------|
A|-------------------------7--7--| x3
E|-0--0----0--0----0--0--7-------|

G|-------------------------------|
D|-------------------------------|
A|--------/6---------------------|
E|-0--0-------4-5---5--5--55--57-|

[Pre chorus]
G|------------------------------------------------------------------------------------------|
G|------------------------------------------------------------------------------------------|
A|-4-----4-4-------------7-7-----7-6----6-6-----6-7-----7-7--9--7-6-----6-6-----6-5-----5-5-|
E|----4-------4--2-0--7-------7-------7------7-------7---------------6-------6-------5------|

G|---------------------------------------------------|
D|---------------------------------------------------|
A|----5-4--6------7-----7-----7-----7--9-9-9--9~-----|
E|-5----------0------0-----0-----0-----------9-------|

[2nd chorus]
G|---------------------------------------------------------------------|
D|------------------2---2---2-2--2---1---1---1-1--1---2---2---2-2--2---|
A|-2---2---2-2--2-----2---2----2---2---1---1----1---1---2---2----2---2-|
E|---2---2----2---2----------------------------------------------------|


G|---------------------------------------------------------------------|
D|-2---2---2-2--2--------------------------------------4-4-4---4~------|
A|---2---2----2---2-5---5---5-5--5---4---4---4-4--4----------4---------|
E|--------------------5---5----5---5---4---4----4---4------------------|

G|---------------------------------------------------------------------|
D|------------------2---2---2-2--2---1---1---1-1--1---2---2---2-2--2---|
A|-2---2---2-2--2-----2---2----2---2---1---1----1---1---2---2----2---2-|
E|---2---2----2---2----------------------------------------------------|

G|----------------------------------------------------------------|
D|-2---2---2-2--2-------------------------------------------------|
A|---2---2----2---2-5---5---5-5--5---4---4---4-4--4---------------|
E|--------------------5---5----5---5---4---4----4---4-2--2--2~----|

[Bridge]
G|--------------------------------------|
D|--------------------------------------|
A|-7~------5~------4~------5~----5---4--|
E|--------------------------------------|

G|-----------------------------------------------------------------|
D|-----------------------------------------------------------------|
A|-2--2----2--2----4--4----4--4----5--5----5--5----4--4----4--4----|
E|-----------------------------------------------------------------|

G|-------------------------------------------------------------------------------------------|
D|----------------------------------------------------2-----2-----2-----2--4-4-4--4~---------|
A|-2--2----2--2----4--4----4--4--------------------------------------------------4-------/9\-|
E|---------------------------------3--3----3---3--0------0-----0-----0-----------------------|

[Last chorus]
G|---------------------------------------------------------------------|
D|------------------2---2---2-2--2---1---1---1-1--1---2---2---2-2--2---|
A|-2---2---2-2--2-----2---2----2---2---1---1----1---1---2---2----2---2-|
E|---2---2----2---2----------------------------------------------------|

G|---------------------------------------------------------------------|
D|-2---2---2-2--2--------------------------------------4-4-4---4~------|
A|---2---2----2---2-5---5---5-5--5---4---4---4-4--4----------4---------|
E|--------------------5---5----5---5---4---4----4---4----------------2-|

G|---------------------------------------------------------------------|
D|------------------2---2---2-2--2---1---1---1-1--1---2---2---2-2--2---|
A|-2---2---2-2--2-----2---2----2---2---1---1----1---1---2---2----2---2-|
E|---2---2----2---2----------------------------------------------------|

G|---------------------------------------------------------------------|
D|-2---2---2-2--2------------------------------------------------------|
A|---2---2----2---2-5---5---5-5--5---4---4---4-4--4---------2/9-9-999\-|
E|--------------------5---5----5---5---4---4----4---4-2--2-------------|

G|---------------------------------------------------------------------|
D|------------------2---2---2-2--2---1---1---1-1--1---2---2---2-2--2---|
A|-2---2---2-2--2-----2---2----2---2---1---1----1---1---2---2----2---2-|
E|---2---2----2---2----------------------------------------------------|

G|---------------------------------------------------------------------|
D|-2---2---2-2--2--------------------------------------4-4-4---4~------|
A|---2---2----2---2-5---5---5-5--5---4---4---4-4--4----------4---------|
E|--------------------5---5----5---5---4---4----4---4----------------2-|

G|---------------------------------------------------------------------|
D|------------------2---2---2-2--2---1---1---1-1--1---2---2---2-2--2---|
A|-2---2---2-2--2-----2---2----2---2---1---1----1---1---2---2----2---2-|
E|---2---2----2---2----------------------------------------------------|

G|------------------------------------------------------------------|
D|-2---2---2-2--2---------------------------------------------------|
A|---2---2----2---2-5---5---5-5--5---4---4---4-4--4-----------------|
E|--------------------5---5----5---5---4---4----4---4-2--2--2--2----|

[End]
G|----------------------------------------------------------------------|
D|----------------------------------------------------------------------|
A|-7---7---7-7--7---6---6---6-6--6---5---5---5-5--5----4---4---4-4--4---|
E|---7---7----7---7---6---6----6---6---5---5----5---5----3---3----3---3-|

G|-----------------------------------------------------------------|
D|--------------------4-3-2----------------------------------------|
A|-3---3---3-3--3---2-------------------------2--2--2--2-2---2~----|
E|---3---3----3---3----------0-3-5---5--5--5--------------2--------|

G|-------------------------------|
D|-------------------------------|
A|-------------------------7--7--| x2
E|-0--0----0--0----0--0--7-------|

G|------------------------------------------------------|
D|------------------------------------------------------|
A|----------4-5--5--5--5--2--2--2-2--2------------------|
E|-2--4--5-----------------------------------0~---------|

************************************

| / Slide up
| \ Slide down
| ~ Vibrato

************************************

            
            
Suggest correction
Creating personal tab
Creating personal tab
You can edit any tab online and save it as your Personal.

You can edit, replace or remove any tab part or add personal notes – all changes will be seen only by you.

Personal tabs can be accessed anytime from any device, even offline.
Learn more »
Give kudos to tab author, rate the tab!
1 2 3 4 5
comments
print report bad tab
guest
You may want to rate the tab now too:
select rating
Wanna post a correction for this tab? Suggest correction