Oops, an error
Loading. Please wait.

Belief Kim Team Theme Ost King Of Fighters Xiv Tab

34 views 3 this week
no commentswrite comment
1 2 3 4 5
3 more votes to show rating
add to favorites
launch autoscroll
font size
0
reset
how to read this tab
guitar tuner
Autoscroll
slow
fast
+/-
esc
set tempo
stop
Help us to improve Ultimate-Guitar.com Take our survey!
×
Author
Difficulty
intermediate
About this tab version
I wrote the bars according to phrases so it is easier to understand. Added descriptions to the sections so that you understand what is going with the rhytm or the musical theory. Also here is a video so that you have a visual reference. https://www.youtube.com/watch?v=ELR65M5u_kQ. Was this info helpful? Yes No
[Section 1] 

This time signature is 3 bars with 4/4 and one bar of 2/4.
Play this section 4 times.

e|------------------|-----------------|------------------|--------------|
B|------------------|-----------------|------------------|--------------|
G|--x-x-5-x-5~------|-----------------|--x-x-5-x-5~------|-5-3----3-----|
D|--x-x-5-x-5~------|-----------------|--x-x-5-x-5~------|-----5----5-3-|
A|----------------3x|-x-5x--8x----3/5-|------------------|--------------|
E|------------------|-----------------|------------------|--------------|


[Section 2] 
This section also uses the same time signature.

e|----------------|--------------------|----------------|--------|
B|/13~------------|--------/13-11-10---|11~-------------|-/13----|
G|----------------|--------------------|----------------|--------|
D|----------------|--------------------|----------------|--------|
A|----------------|--------------------|----------------|--------|
E|----------------|--------------------|----------------|--------|

e|----------------|--------------------|----------------|----------------|
B|10~-------------|-------/11-10-6/8~~~|~~--------------|--------8-10-11-|
G|----------------|--------------------|----------------|-7-8-10---------|
D|----------------|--------------------|----------------|----------------|
A|----------------|--------------------|----------------|----------------|
E|----------------|--------------------|----------------|----------------|

e|----------------|--------------------|----------------|--------|
B|-13~------------|--------/13-11-10---|11~-------------|-/13----|
G|----------------|--------------------|----------------|--------|
D|----------------|--------------------|----------------|--------|
A|----------------|--------------------|----------------|--------|
E|----------------|--------------------|----------------|--------|

e|--------11/-13~~|~~--------------|--------15~-----|-------------|
B|10~-------------|----------------|----------------|-------------|
G|----------------|----------------|12--------------|-5-3---3-----|
D|----------------|----------------|----------------|-----5---5-3-|
A|----------------|----------------|----------------|-------------|
E|----------------|----------------|----------------|-------------|

Up next there is a melodic minor scale of C, starting at G on the sixth string. This section  has a total 
of 7 beats. 4 of the scale and 3 of silence. You will be playing triplets in every beat. This means 3 notes
by beat.

e|-------------------------|------------|
B|-----------------------3-|------------|
G|-------------------3-5---|------------|
D|-------------3-5-7-------|5-----------|
A|-------3-5-6-------------|------------|
E|-3-5-6-------------------|------------|


[Section C] 

This section can be a little tricky due to the different time signatures, but if you listen to 
the guitar changes it will grow naturally. The key measure in this section is 7/4

e|---------|---------------------|------------|--------|
B|---------|---------------------|------13----|--------|
G|-15~-----|-14b15--14p12\10~----|-12-14---14-|15~-----|
D|-x-------|---------------------|------------|--------|
A|-x-------|---------------------|------------|--------|
E|-x-------|---------------------|------------|--------|

e|---------|------------------|-----------------|--------13---------|-------------------|-------13----15~----|
B|---------|-15---------------|-------------15~-|--13b15---pbr15r13-|--13---------------|-13/15----15--------|
G|-17b19---|----17p15\14~-----|-12-14-15-17-----|-------------------|----15-14----12~---|--------------------|
D|-x-------|------------------|-----------------|-------------------|----------15-------|--------------------|
A|-x-------|------------------|-----------------|-------------------|-------------------|--------------------|
E|---------|------------------|-----------------|-------------------|-------------------|--------------------|


[Section D] 

This section is a little tricky for the slides, you can practice your slides with some 
exercises and it should sound just fine.

e|-------------------|-------------------|------------------|------12----14-----|
B|-/8-10---8/15------|-10\8--8---8h10----|-/8-10--8/15------|-8/10----10----10--|
G|-------------------|---------7---------|------------------|-------------------|
D|-------------------|-------------------|------------------|-------------------|
A|-------------------|-------------------|------------------|-------------------|
E|-------------------|-------------------|------------------|-------------------|

e|-15--14-15--------|--15---15--17------|--20--19-20------|-15-------------|
B|-----------15~~---|-----15------------|------------20~~\|---15-13-12-----|
G|------------------|-------------------|-----------------|----------------|
D|------------------|-------------------|-----------------|----------------|
A|------------------|-------------------|-----------------|----------------|
E|------------------|-------------------|-----------------|----------------|

e|-------------------|-------------------|------------------|------12----14-----|
B|-/8-10---8/15------|-10\8--8---8h10----|-/8-10--8/15------|-8/10----10----10--|
G|-------------------|---------7---------|------------------|-------------------|
D|-------------------|-------------------|------------------|-------------------|
A|-------------------|-------------------|------------------|-------------------|
E|-------------------|-------------------|------------------|-------------------|

e|-15-13-15---------|----------------|-15-13-15---------|-------------------|
B|----------15~-----|-13---13/15-----|----------15~-----|-13/15--13---------|
G|------------------|---12-----------|------------------|-----------15-12---|
D|------------------|----------------|------------------|-------------------|
A|------------------|----------------|------------------|-------------------|
E|------------------|----------------|------------------|-------------------|

*In this part you can either play the last bar for the ending or repeat the second bar, I found that playing
the fourth bar would make it impossible for me to play the Section E since the slide at the ending sounds at
the same time that the Section E starts. 

e|-------------------|-----------------------|-------------------|------13----13-15-20\|
B|-------------------|-----------------------|-------------------|--------13-----------|
G|-10~--12-10/17~----|-12----10-----10--12---|-10~-12--10/17~----|-12------------------|
D|-------------------|----10-----10----------|-------------------|---10----------------|
A|-------------------|-----------------------|-------------------|---------------------|
E|-------------------|-----------------------|-------------------|---------------------|


[Section E]

e|--------------------|---------------------|--------------------|---------------------|
B|--------------------|---------------------|--------------------|---------------------|
G|--------------------|---------------------|--------------------|---------------------|
D|--------------------|---------------------|--------------------|---------------------|
A|--------6---------8-|--------9-8-6--------|--------6---------8-|-------9-8-6---------|
E|-8-6-8-----8-6-8----|-8-6-8---------------|-8-6-8-----8-6-8----|-8-6-8---------------|

e|--------------------|
B|--------------------|
G|--------------------|
D|--------------------|
A|--8---6---4---------|
E|-8---6---4---2~~----|

I hope you enjoy this tab. I recommend that you keep an eye on your picking since it can make the difference
on how the phrases are played.
Also I recommend you to search for an EQ that helps you get this sound. I´m thinking something between rock 
and metal


************************************

| x    Dead note
| ~    Vibrato
| /    Slide up
| p    Pull-off
| b    Bend
| \    Slide down
| r    Release
| pbr  Pre-bend release
| h    Hammer-on 

************************************
Suggest correction
Give kudos to tab author, rate the tab!
1 2 3 4 5
comments
print report bad tab
guest
You may want to rate the tab now too:
select rating
Wanna post a correction for this tab? Suggest correction