Oops, an error
Loading. Please wait.

Bioshock Infinite - Will The Circle Be Unbroken tab

version 1
version 1

Whole song

Interactive

63,536 views 123 this week
5 commentsread comments
1 2 3 4 5
x 35
add to favorites
×
Save as Personal and add changes to this tab that will be seen only by you. Learn more ›
×
You can save this tab as Personal to edit and correct it or add notes. All changes will be seen only by you. Learn more »
launch autoscroll
font size
0
reset
how to read this tab
guitar tuner
edit
Autoscroll
slow
fast
+/-
esc
set tempo
stop
Author
Difficulty
"Will the Circle Be Unbroken" (Bioshock Infinite)
Tabbed by: Piecrust8
Tuning: EADGBEC

C      G   C    C                               (Soft)
e|------------^0--------------------------------------0----------|
B|-^0h1---^3--^1----------------------------------1-1------------|
G|-^0-----^0--^0------0----0----0-----------0-----2---------0----|
D|-^2-----^0--^2------2----0h2--0----2--0h2---3-------------2----|
A|-^3-----^2--^3----3--------------3----------------------3------|
E|--------^3-----------------------------------------------------|

          C            (soft)                 G         C
e|---------------------------------------------------------------|
B|----------------------1-----------------1---------0---1--------|
G|--------0---0-----------0-----------------------------0--------|
D|--------2---2--2----------2----2--2---------0---------2--------|
A|---0-3--3---3--2--0------------0--2--3----------------3--------|
E|-3---------------------------------------------3---------------|


************************************

| h  Hammer-on

************************************
This is not my own work I have only put it on this site for others to learn. All credit 
to Piecrust8.

            
            
Suggest correction
Creating personal tab
Creating personal tab
You can edit any tab online and save it as your Personal.

You can edit, replace or remove any tab part or add personal notes – all changes will be seen only by you.

Personal tabs can be accessed anytime from any device, even offline.
Learn more »
comments
print report bad tab
5 comments total. Showing first comments.
+5 reply
richard.vela.94 10 Jan 07, 2014 07:42 PM

C G C C (Soft)
e|------------^0--------------------------------------0----------|
B|-^0h1---^3--^1----------------------------------1-1------------|
G|-^0-----^0--^0------0----0----0-----------0-----2---------0----|
D|-^2-----^0--^2------2----0h2--0----2--0h2---3-------------2----|
A|-^3-----^2--^3----3--------------3----------------------3------|
E|--------^3-----------------------------------------------------|

C (soft) G C
e|---------------------------------------------------------------|
B|----------------------1-----------------1---------0---1--------|
G|--------0---0-----------0-----------------------------0--------|
D|--------2---2--2----------2----2--2---------0---------2--------|
A|---0-3--3---3--2--0------------0--2--3----------------3--------|
E|-3---------------------------------------------3---------------|

0 reply
Fap4Exp 31 Jan 10, 2016 07:37 PM

i liked the way you had the tab set up before. You wouldn't still have it by any chance?

guest
You may want to rate the tab now too:
select rating
Wanna post a correction for this tab? Suggest correction