Oops, an error
Loading. Please wait.

Bloons Tower Defense 5 Theme Bass

280 views 6 this week
no commentswrite comment
1 2 3 4 5
1 last vote to show rating
add to favorites
launch autoscroll
font size
0
reset
guitar tuner
Autoscroll
slow
fast
+/-
esc
set tempo
stop
Author
Difficulty
intermediate
About this tab version
Original version, no others found yet. Was this info helpful? Yes No
This is my first tab, but for an easy song that I haven't seen any tabs for so I thought it might be
appreciated.  The hardest part of the song is the rhythm, and if you've played BTD5 for any amount of time
you shouldn't have a problem :)

[Intro]

G|---------------------------------------------------------------------------|
D|--------------------11---------------------3-------------------------------|
A|------8----------11-----------4--------3-----------------------------------|
E|--6-------10p9-------------2------2p1--------------------------------------|

G|-------------------------------------------2-------------------------------|
D|--------------------11-----------------------------------------------------|
A|------8----------11-----------4--------3-----------------------------------|
E|--6-------10p9-------------2------2p1--------------------------------------|


[Theme]

G|----------7---------------------------7------------------------|
D|------8------6--6h8p6---------------8----6--8------------------|
A|----8------------------8------8---------------8----------------|
E|--6-------------------------6----------------------------------|

G|----------7---------------------------10-----------------------|
D|------8------6--6h8p6---------------11---9--11-----------------|
A|----8------------------8------11---------------11--------------|
E|--6-------------------------9----------------------------------|


[Guitar part for the bass, if you like]

G|--15\\----13----10h12-p10---------------10---------------------|
D|--15\\-----------------------------//8-----10------------------|
A|---------------------------------------------------------------|
E|---------------------------------------------------------------|


G|--15\\----13----10h12-p10--------------18----------------------|
D|--15\\-------------------------------------18p15---------------|
A|---------------------------------------------------------------|
E|---------------------------------------------------------------|


That's about all there is to it, enjoy!



************************************

| p  Pull-off
| h  Hammer-on
| \  Slide down
| /  Slide up

************************************
Suggest correction
Give kudos to tab author, rate the tab!
1 2 3 4 5
comments
print report bad tab
guest
You may want to rate the tab now too:
select rating
Wanna post a correction for this tab? Suggest correction