Oops, an error
Loading. Please wait.

Captain Claw Soundtrack Amulet Quest intro tab

427 views 6 this week
no commentswrite comment
1 2 3 4 5
x 3
add to favorites
×
Save as Personal and add changes to this tab that will be seen only by you. Learn more ›
×
You can save this tab as Personal to edit and correct it or add notes. All changes will be seen only by you. Learn more »
launch autoscroll
font size
0
reset
how to read this tab
guitar tuner
edit
Autoscroll
slow
fast
+/-
esc
set tempo
stop
Author
Difficulty
---------------------------------------------------------------------
                Captain Claw Soundtrack: Amulet Quest
---------------------------------------------------------------------
Tabbed by: Tomáš Hudziec

Tuning: standard
Rhytm: 4/4 metrum
BPM = 90

    ^                               ^                                
    Q.     E  H           Q    Q    Q.     E     H        Q    Q     
e|--5------6--5--------|-------5----5------6--|--5-------------5----|
B|--6------------------|--8---------6---------|-----------8---------|
G|--7------------------|------------7---------|---------------------|
D|--7------------------|------------7---------|---------------------|
A|--5------------------|------------5---------|---------------------|
E|---------------------|----------------------|---------------------|
    ^
    Q.     E  H           Q.     S  S  Q.     E     H                  
e|--3------5--3--------|-------------------------|--3----------------||
B|--4------------------|--6------4h-6p-4------3--|--3----------------||
G|--3------------------|-------------------------|--0----------------||
D|---------------------|-------------------------|-------------------||
A|---------------------|-------------------------|-------------------||
E|---------------------|-------------------------|-------------------||

************************************
| W - whole
| H - half
| Q - quarter
| E - 8th
| S - 16th
| . - note dotted
| h - hammer-on
| p - pull-off
| ^ - brush up
************************************

            
            
Suggest correction
Creating personal tab
Creating personal tab
You can edit any tab online and save it as your Personal.

You can edit, replace or remove any tab part or add personal notes – all changes will be seen only by you.

Personal tabs can be accessed anytime from any device, even offline.
Learn more »
Give kudos to tab author, rate the tab!
1 2 3 4 5
comments
print report bad tab
guest
You may want to rate the tab now too:
select rating
Wanna post a correction for this tab? Suggest correction