Oops, an error
Loading. Please wait.

Castlevania - Stage 1 Tab

version 1
version 1

Whole song

Interactive

6,594 views 1 this week
1 commentread comment
1 2 3 4 5
accurate
x 8
add to favorites
launch autoscroll
font size
0
reset
how to read this tab
guitar tuner
Tab Pro tools
  • play this tab
  • loop segment
  • change instrument
  • show fretboard
  • metronome
×
Best way to learn
"Castlevania - Stage 1"
Autoscroll
slow
fast
+/-
esc
set tempo
stop
Contributor
CASTLEVANIA - STAGE 1

CONTACT:

www.myspace.com/iceclimbersrocks

iceclimbersrocks@hotmail.com


Lead Part:

e------------------------------------------------------------------------------|
B------------------------------------------------------------------------------|
G-7-7-5-4-------------------5---7-7-5-4----------------------------------------|
D----------------5-7----7--5-------------------5-7----7--5---------------------|
A----------5-7-8------5------------------5-7-8------5-----3--------------------|
E------------------------------------------------------------------------------|


e-----------------------------------------------|---------6-5------------6-5---|
B---10-9h10p9-----------------------------------|-------------6----------------|
G-7-----------10--10p7------10p7-10p7-10p7-10p7-|----6--9-------7---6--9-----7-|
D-----------------------------------------------|------------------------------|
A----------------------8p5----------------------|-x2---------------------------|
E-----------------------------------------------|------------------------------|


e------6-5------------------7--9-----------------------------------------------|
B----------6------8--11-10-----------------------------------------------------|
G-6--9-------7--9--------------------------------------------------------------|
D------------------------------------------------------------------------------|
A------------------------------------------------------------------------------|
E------------------------------------------------------------------------------|


e-10-10------------------------------10-10-------------------------------------|
B---------------------6----------8---------------------6-----------------------|
G--------7-7--------7----------9-----------7-7-------7-------------------------|
D---------------8-8------10-10-------------------8-8---------------------------|
A------------------------------------------------------------------------------|
E---------------------------------------------------------8-8-5-8--------------|


Harmony Part:

e-------------------------------|------------------------------------------|----|
B-------------------------------|------------------10-10-9-9-8--10-10-9-9-8|----|
G-------------------------------|------7--6h7p6-5--------------------------|----|
D-7-7--5-5--------------------5-|----7-------------------------------------|----|
A-----------5--5-3-3-5----5--3--|-x2---------------------------------------|x2--|
E-----------------------6-------|------------------------------------------|----|


e-------------------------------------------------------------------------------|
B-------------------------------------------------------------------------------|
G--------9--7--------------9--7------------9--7----------9------9--12-----------|
D-8--11-------7-----8--11-------7---8--11---------8--11-----11------------------|
A---------------8---------------------------------------------------------------|
E-------------------------------------------------------------------------------|


e-------------------------------------------------------------------------------|
B-10-10-----------------------------10-10---------------------------------------|
G-------------------7-----------8--------------------7--------------------------|
D-------7-7-------8----------10-----------7-7------8----------------------------|
A-------------8-8------10-10-------------------8-8------10----------------------|
E-------------------------------------------------------------------------------|
comments
print report bad tab
1 comment total.
0 reply
Nicotion wrote on January 1 2016, 09:42 pm

didn't like this contribution

I want to post or [tab]
guest
You may want to rate the tab now too:
select rating
Please do not post tabs as comments. Select "correction" instead!