Oops, an error
Loading. Please wait.

Castlevania 3 - Beginning Bass Tab

version 1
version 1

Whole song

Interactive

37 views 1 this week
no commentswrite comment
1 2 3 4 5
3 more votes to show rating
add to favorites
launch autoscroll
font size
0
reset
guitar tuner
Autoscroll
slow
fast
+/-
esc
set tempo
stop
Help us to improve Ultimate-Guitar.com Take our survey!
×
Author
Difficulty
advanced
#----------------------------------PLEASE NOTE---------------------------------#
#This file is the author's own work and represents their interpretation of the #
#song. You may only use this file for private study, scholarship, or research. #
#------------------------------------------------------------------------------##

Castlevania 3 (NES) - Beginning (Stage 1 theme)...on bass!!!

Gtr I (B E A D G) - 'Untitled'

    Gtr I
     S  S  S  S  E.  S S  S  S  S  E.  S   S  S  S  S  E.  S  E E  E.  S
G||---------------------------------------|-------------------------------|
D||o--------------------------------------|-------------------------------|
A||--------------12--10------------10--10-|------------10--10----------12-|
E||o-10-10-10-10----------10-10-10--------|---10-10-10--------10---12-----|
B||---------------------------------------|-------------------------------|


   S  S  S  S  E.  S S  S  S  S  E.  S   S  S  S  S  E.  S  E E  E.  S
G|--------------------------------------|------------------------------|
D|--------------------------------------|------------------------------|
A|-------------12--10------------10--10-|------------10--10----------12|
E|-10-10-10-10----------10-10-10--------|---10-10-10--------10---12----|
B|--------------------------------------|------------------------------|


 3/4         4/4
   +H.         S  S  S  S  Q   S  S  E  S  S  S  S
G|-----------|--------------------------------------|
D|-----------|-------------12--------12-12-12-12----|
A|-(12)------|--------------------------------------|
E|-----------|-10-10-10-10-----10-10-------------10-|
B|-----------|--------------------------------------|


   S  S  S  S  Q   E  E  S  S  E    S  S  S  S  Q   S  S  E  S  S  S  S
G|--------------------------------|----------------------------------------|
D|-------------14-----13-13-13-13-|-------------12--------12-12-12-12------|
A|--------------------------------|----------------------------------------|
E|-12-12-12-12-----11-------------|-10-10-10-10-----10-10-------------10---|
B|--------------------------------|----------------------------------------|


   S  S  S  S  Q   S  S  E  S  S  E    S  S  S  S  Q   S  S  E  S  S  S  S
G|-----------------------12-------12-|--------------------------------------|
D|-------------14--------------------|-------------12--------12-12-12-12----|
A|-----------------12-12----12-12----|--------------------------------------|
E|-12-12-12-12-----------------------|-10-10-10-10-----10-10-------------10-|
B|-----------------------------------|--------------------------------------|


   S  S  S  S  Q   E  E  S  S  E    S  S  S  S  Q   S  S  E  S  S  S  S
G|--------------------------------|----------------------------------------|
D|-------------14-----13-13-13-13-|-------------12--------12-12-12-12------|
A|--------------------------------|----------------------------------------|
E|-12-12-12-12-----11-------------|-10-10-10-10-----10-10-------------10---|
B|--------------------------------|----------------------------------------|


   S  S  S  S  Q   S  S  E  S  S  E    S  S  S  S  +S   S  E  S  S S  S  S  S S S
G|-----------------------12-------12-|----------15-(15)----15----15---10-----------|
D|-------------14--------------------|--------------------------------------12---8-|
A|-----------------12-12----12-12----|-13-13-13---------13----13----8--------------|
E|-12-12-12-12-----------------------|-----------------------------------10----6---|
B|-----------------------------------|---------------------------------------------|


   S  S  S  S  +S   S  E  S  S  S  S  S  S  S  S    S  S  S  S  +S   S  E  +S   S  S  S  S  S  S  S
G|----------14-(14)----14-------------14----------|----------13-(13)----13-(13)-------14-16-14----14----|
D|------------------------------15-12----15-12----|--------------------------------15----------15-------|
A|-12-12-12---------12----12-12----------------12-|-11-11-11---------11---------16----------------------|
E|------------------------------------------------|-----------------------------------------------------|
B|------------------------------------------------|-----------------------------------------------------|


   S  S  S  S  S  S  S  S  S  S  S  S  S  S  S  S    Q.    S  S  H
G|-14-------14-------14-------14-------14----14----|-------------------|
D|-------------------------------------------------|-12----12-12-14----|
A|----12-12----12-12----12-12----12-12----12----12-|-------------------|
E|-------------------------------------------------|-------------------|
B|-------------------------------------------------|-------------------|


   E.  S  +E   E  H       E.  S  +S   S S  S  Q   +S   S S  S
G|----------------------|----------------------------------------|
D|----------------------|----------------------------------------|
A|-12--12-(12)-12-11----|-10--10-(10)-10-8-10-11--(11)-11-8-11---|
E|----------------------|----------------------------------------|
B|----------------------|----------------------------------------|


   H     +S   S  S  S  S  S  S  S    S  S  S  S  S  S  S  S  S  S  S  S  S  S  S  S
G|------------14-14-14-14-14-14-14-|----------------19----------------------17-------|
D|---------------------------------|-------------------------------------------------|
A|-12----(12)----------------------|-17----17----17-------17-15----15----15-------15-|
E|---------------------------------|-------------------------------------------------|
B|---------------------------------|----15----15-------15-------13----13-------13----|


   S  S  S  S  S  S  S  S  S  S  S  S  S  S  S  S    S  S  S  S  S  S  S  S  S  S  S  S  S  S  S  S
G|----------------16-------------------------------|----------------19----------------------17---------|
D|-------------------------------------------------|---------------------------------------------------|
A|-14----14----14-------14-13----13----15----15----|-17----17----17-------17-15----15----15-------15---|
E|-------------------------------------------------|---------------------------------------------------|
B|----12----12-------12-------11----11----13----13-|----15----15-------15-------13----13-------13------|


   S  S  S  S  S  S  S  S  S  S  S  S  S  S  S  S
G|----------------16-------15----15----15-14-12----|
D|----------------------------------------------15-|
A|-14----14----14-------14----13----13-------------|
E|-------------------------------------------------|
B|----12----12-------12----------------------------|


   E  E  S  S  E  E.  S  E  E    Q   Q   S  S  S  S  S  S  S  S
G|-------14-14-----------14-14-|-----14-----14-12-----------------||
D|-----------------------------|------------------15-15-14-12-11-o||
A|-12-12-------12-12--12-------|-12------12-----------------------||
E|-----------------------------|---------------------------------o||
B|-----------------------------|----------------------------------||


************************************

| (n)  Ghost note
| o    reprise

************************************
Suggest correction
Give kudos to tab author, rate the tab!
1 2 3 4 5
comments
print report bad tab
guest
You may want to rate the tab now too:
select rating
Wanna post a correction for this tab? Suggest correction