Oops, an error
Loading. Please wait.

Castlevania 3 - Beginning Tab

version 2
version 2

Whole song

Interactive

28 views 1 this week
no commentswrite comment
1 2 3 4 5
3 more votes to show rating
add to favorites
launch autoscroll
font size
0
reset
how to read this tab
guitar tuner
Autoscroll
slow
fast
+/-
esc
set tempo
stop
Help us to improve Ultimate-Guitar.com Take our survey!
×
Author
Difficulty
advanced
#----------------------------------PLEASE NOTE---------------------------------#
#This file is the author's own work and represents their interpretation of the #
#song. You may only use this file for private study, scholarship, or research. #
#------------------------------------------------------------------------------##

Castlevania 3 (NES) - Beginning (Stage 1 theme)

Gtr I (E A D G B E) - 'Sawtooth'
Gtr II (E A D G B E) - 'Squarewave'

    4/4
     Gtr I
     Q   E.  S  +E  E  E.  S    +E  E  E.  S  +S   S  S  S  S  S  S  S
e||--------------------------|--------------------------------------12-|
B||o----15--13-(13)---13--12-|-(12)---12----------------------12-14----|
G||--------------------------|------------15-(15)-15-14-12-14----------|
D||--------------------------|-----------------------------------------|
A||o-------------------------|-----------------------------------------|
E||--------------------------|-----------------------------------------|
 |
 |   Gtr II
 |   Q   E.  S  +E  E  E.  S     E  E  E.  S  +E      S  S  S  S  S  S
e||--------------------------|------------------------------------7--9-|
B||o-------------------------|-----------------------11-10--8-10-------|
G||-----10---9--(9)----9---7-|---7-----7---7--(7)----------------------|
D||--------------------------|-----------------------------------------|
A||o-------------------------|-----------------------------------------|
E||--------------------------|-----------------------------------------|


                                                          T
   Q   E.  S  +E  E  E.  S    +E  E  E.  S  +S   S  S  S  S  S  S  S
e|-------------------------|--------------------------13-27-24-21------|
B|----15--13-(13)---13--12-|-(12)---12-------------15-------------23---|
G|-------------------------|------------15-(15)-15---------------------|
D|-------------------------|-------------------------------------------|
A|-------------------------|-------------------------------------------|
E|-------------------------|-------------------------------------------|
 |
 | Q   E.  S  +E  E  E.  S    +E  E  E.  S  +E      E     Q
e|-------------------------|-------------------------------------------|
B|-------------------------|-------------------------------------------|
G|----10---9--(9)----9---7-|--(7)----7---7--(7)------------------------|
D|-------------------------|-------------------------------------------|
A|-------------------------|-------------------------------------------|
E|-------------------------|-------------------------------------------|


  3/4                                   4/4
    S  S  S  S  S  S  S  S  S  S  S  S    S  S  S  S  +Q            +S   S  S  S  S   S  S  S
e|-------------------------------------|---------------------------------------------------17-|
B|-20----------------------------------|-18-17-15--------------------------15-17-18--17-15----|
G|----21-18-------------16-------------|----------14-(14)----------(14)-14--------------------|
D|----------20-17----------19-17-15----|------------------------------------------------------|
A|----------------19-16-------------19-|------------------------------------------------------|
E|-------------------------------------|------------------------------------------------------|
 |
 |  H                       Q             Q            S   S  S  S  +Q            E.        S
e|-------------------------------------|------------------------------------------------------|
B|-------------------------------------|--------------18--17-15----------------------------18-|
G|-------------------------------------|------------------------14-(14)-----------------------|
D|-------------------------------------|------------------------------------------------------|
A|-------------------------------------|------------------------------------------------------|
E|-------------------------------------|------------------------------------------------------|


    E.  S  +E   E  E.  S  +E   E    S  S  S  S  +Q            +S   S  S  S  S   S  S  S
e|-16----------16-15----------15-|---------------------------------------------------17--|
B|-----17-(17)--------16-(16)----|-18-17-15--------------------------15-17-18--17-15-----|
G|-------------------------------|----------14-(14)----------(14)-14---------------------|
D|-------------------------------|-------------------------------------------------------|
A|-------------------------------|-------------------------------------------------------|
E|-------------------------------|-------------------------------------------------------|
 |
 |  E.  S  +E   E  E.  S  +E   E    Q            S   S  S  S  +Q            E.        S
e|-------------------------------|-------------------------------------------------------|
B|-17----------17-16----------16-|--------------18--17-15----------------------------18--|
G|-----16-(16)--------15-(15)----|------------------------14-(14)------------------------|
D|-------------------------------|-------------------------------------------------------|
A|-------------------------------|-------------------------------------------------------|
E|-------------------------------|-------------------------------------------------------|


    E.  S  +E   E  S  S  S  S  +Q      S  S  S  S  +Q            +S   S  S  S  S   S  S  S
e|-16----------22-21-22-24----------|---------------------------------------------------17-|
B|-----17-(17)-------------22-(22)--|-18-17-15--------------------------15-17-18--17-15----|
G|----------------------------------|----------14-(14)----------(14)-14--------------------|
D|----------------------------------|------------------------------------------------------|
A|----------------------------------|------------------------------------------------------|
E|----------------------------------|------------------------------------------------------|
 |
 |  E.  S  +E   E  S  S  S  S  +Q      Q            S   S  S  S  +Q            E.        S
e|-------------17-17-16-15----------|------------------------------------------------------|
B|-17-------------------------------|--------------18--17-15----------------------------18-|
G|-----16-(16)-------------18-(18)--|------------------------14-(14)-----------------------|
D|----------------------------------|------------------------------------------------------|
A|----------------------------------|------------------------------------------------------|
E|----------------------------------|------------------------------------------------------|


    E.  S  +E   E  E.  S  +E   E    S  S  S  S  +Q            +S   S  S  S  S   S  S  S
e|-16----------16-15----------15-|---------------------------------------------------17--|
B|-----17-(17)--------16-(16)----|-18-17-15--------------------------15-17-18--17-15-----|
G|-------------------------------|----------14-(14)----------(14)-14---------------------|
D|-------------------------------|-------------------------------------------------------|
A|-------------------------------|-------------------------------------------------------|
E|-------------------------------|-------------------------------------------------------|
 |
 |  E.  S  +E   E  E.  S  +E   E    Q            S   S  S  S  +Q            E.        S
e|-------------------------------|-------------------------------------------------------|
B|-17----------17-16----------16-|--------------18--17-15----------------------------18--|
G|-----16-(16)--------15-(15)----|------------------------14-(14)------------------------|
D|-------------------------------|-------------------------------------------------------|
A|-------------------------------|-------------------------------------------------------|
E|-------------------------------|-------------------------------------------------------|


    E.        S  +E      E     E.        S  +E      E       S  S  S  S  +S   S  E  +S   E.  E  E
e|-----------22-(22)----25----21--------24-(24)----29----|------------------------------------15-|
B|-21----------------------------------------------------|-18-18-18-15-(15)-15---------15--18----|
G|-------------------------------------------------------|---------------------15-(15)-----------|
D|-------------------------------------------------------|---------------------------------------|
A|-------------------------------------------------------|---------------------------------------|
E|-------------------------------------------------------|---------------------------------------|
 |
 |  S   S  S  S   S   S  S  S  S   S  S  S   S   S  S  S    S  S  S  S  +S   S  E  +S   E.  E  E
e|-----------17--19--21-22-20-29--27-25-24--22--21-18-17-|---------------------------------------|
B|-17--19-21---------------------------------------------|-15-15-15------------------------15-15-|
G|-------------------------------------------------------|----------16-(16)-16---------16--------|
D|-------------------------------------------------------|---------------------15-(15)-----------|
A|-------------------------------------------------------|---------------------------------------|
E|-------------------------------------------------------|---------------------------------------|


    E.  S  +E   E  +S   S  S  S  S  S  S  S    S  S  S  S  +S   S  E  +S   S  S  S  S  S  S  S
e|-13--10-(10)------------10----13-10-------|-13-13-13-10-(10)-10---------------10-13-10----10---|
B|-------------10-(10)-10----10-------10----|--------------------------------12----------12------|
G|---------------------------------------10-|---------------------13-(13)-13---------------------|
D|------------------------------------------|----------------------------------------------------|
A|------------------------------------------|----------------------------------------------------|
E|------------------------------------------|----------------------------------------------------|
 |
 |  E.  S  +E   E  +S   S  S  S  S  S  S  S    S  S  S  S  +S   S  E  +S   S  S  S  S  S  S  S
e|------------------------------------------|----------------------------------------------------|
B|-15---------------------------15----------|-15-15-15--------------------------12-15-12----12---|
G|-----14-(14)------------14-------14-------|----------13-(13)-13------------13----------13------|
D|-------------15-(15)-15----15-------15-12-|---------------------15-(15)-15---------------------|
A|------------------------------------------|----------------------------------------------------|
E|------------------------------------------|----------------------------------------------------|


    E.  S  +E   E  +S   E.  E  E    E.  S  +E   E  E.  S  +E   E
e|-------------------------15-17-|-13--10-(10)--------12-(12)-10-|
B|-14--15-(15)-16-(16)-17--------|-------------10----------------|
G|-------------------------------|----------------13-------------|
D|-------------------------------|-------------------------------|
A|-------------------------------|-------------------------------|
E|-------------------------------|-------------------------------|
 |
 |  E.  S  +E   E  +S   E.  E  E    E.  S  +E   E  H
e|-------------------------------|-------------------------------|
B|---------------------14--14-14-|-15----------------------------|
G|-14--16-(16)-17-(17)-----------|-----14-(14)-------------------|
D|-------------------------------|-------------15-12-------------|
A|-------------------------------|-------------------------------|
E|-------------------------------|-------------------------------|


    Q.          E  Q.          E    E.  S  +E   E  E.  S  +E   E
e|--9-------------10-------------|-------------10-13--12-(12)-10-|
B|-------------------------------|-----12-(12)-------------------|
G|-------------------------------|-12----------------------------|
D|-------------------------------|-------------------------------|
A|-------------------------------|-------------------------------|
E|-------------------------------|-------------------------------|
 |
 |  E.  S  +E   E  E.  S  +E   E    E.  S  +E   E  H
e|-------------------------------|-------------------------------|
B|-------------------------------|----------------12-------------|
G|-12--14-(14)-12----------------|-----12-(12)-15----------------|
D|----------------15--14-(14)-12-|-12----------------------------|
A|-------------------------------|-------------------------------|
E|-------------------------------|-------------------------------|


    S   S  S  S  S  S  S  S  H       S  S  S  S  +Q            S  S  S  S  +Q
e|-17--18-17-18-17-18-17-18-17----|-------17-22-(22)----------------17-22-(22)----------|
B|--------------------------------|-15-18---------------------15-18---------------------|
G|--------------------------------|-----------------------------------------------------|
D|--------------------------------|-----------------------------------------------------|
A|--------------------------------|-----------------------------------------------------|
E|--------------------------------|-----------------------------------------------------|
 |
 |  Q.                 S  S  H       Q            S   S  S  S  Q            S   S  S  S
e|--------------------------------|-----------------------------------------------------|
B|-15-----------------17-15-14----|-15------------------------15------------------------|
G|--------------------------------|------------------14----14------------------14----14-|
D|--------------------------------|--------------12-----15------------------------15----|
A|--------------------------------|----------------------------------------15-----------|
E|--------------------------------|-----------------------------------------------------|


    S  S  S  S  +E      S  S  S  E.        S  S  S  S    S  S  S  S  +Q            S  S  S  S  +Q
e|-------17-22-(22)----------17-22--------------20-24-|-------22-25-(25)----------------22-25-(25)-----------|
B|-15-18---------------15-18--------------17-20-------|-18-22---------------------18-22----------------------|
G|----------------------------------------------------|------------------------------------------------------|
D|----------------------------------------------------|------------------------------------------------------|
A|----------------------------------------------------|------------------------------------------------------|
E|----------------------------------------------------|------------------------------------------------------|
 |
 |  Q            S   S  S  S  S  S   S  S  S  S  S  S    S  S  S  S   S   S  S  S  S  S  S  S   S   S  S  S
e|----------------------------------------------------|-------17-22---------------------17-22----------------|
B|-15-------------------------------------------------|-15-18---------------------15-18----------------------|
G|------------------14----14-----------------12----12-|------------------14----14------------------14----14--|
D|---------------------15-------15--12-15-------14----|--------------12-----15------------------------15-----|
A|--------------14-----------13-----------15----------|----------------------------------------15------------|
E|----------------------------------------------------|------------------------------------------------------|


    S  S  S  S  +E   S  S  S  E.  S  S  S  S
e|-------22-25-(25)-------22-25--24-25-27-28-|
B|-18-22------------18-22--------------------|
G|-------------------------------------------|
D|-------------------------------------------|
A|-------------------------------------------|
E|-------------------------------------------|
 |
 |  S  S  S  S  +E   S  S  S  E.  S  S  S  S
e|-------17-22-(22)-------17-22--17-18-19-20-|
B|-15-18------------15-18--------------------|
G|-------------------------------------------|
D|-------------------------------------------|
A|-------------------------------------------|
E|-------------------------------------------|


    S  S     S  S     S  S     S  S     S  S     S  S     S  S     S  S
e|-29-29b30-29-29b30-29-29b30-29-29b30-29-29b30-29-29b30-29-29b30-29-29b30---|
B|---------------------------------------------------------------------------|
G|---------------------------------------------------------------------------|
D|---------------------------------------------------------------------------|
A|---------------------------------------------------------------------------|
E|---------------------------------------------------------------------------|
 |
 |  S  S     S  S     S  S     S  S     S  S     S  S     S  S     S  S
e|-21-22----21-22----21-22----21-22----21-22----21-22----21-22----21-22------|
B|---------------------------------------------------------------------------|
G|---------------------------------------------------------------------------|
D|---------------------------------------------------------------------------|
A|---------------------------------------------------------------------------|
E|---------------------------------------------------------------------------|


   T  T     T  T     T  T     T  T     T  T     T  T     T  T  T  T  T  T  T  T  T  T  T  T  T  T  T  T  T
e|-30-29-29b30-29-29b30-29-29b30-29-29b30-29-29b30-29-29b30-29-27-25-24-22-21--------------------------------|
B|----------------------------------------------------------------------------23-22-21-20-18-17-15----------o|
G|-------------------------------------------------------------------------------------------------18-15-18--|
D|-----------------------------------------------------------------------------------------------------------|
A|----------------------------------------------------------------------------------------------------------o|
E|-----------------------------------------------------------------------------------------------------------|
 |
 |  Q                                   Q                                   H
e|-21----------------------------------22----------------------------------21--------------------------------|
B|----------------------------------------------------------------------------------------------------------o|
G|-----------------------------------------------------------------------------------------------------------|
D|-----------------------------------------------------------------------------------------------------------|
A|----------------------------------------------------------------------------------------------------------o|
E|-----------------------------------------------------------------------------------------------------------|


** Generated using Power Tab Editor by Brad L


************************************

| (n)  Ghost note
| b    Bend
| o    reprise

************************************
Suggest correction
Give kudos to tab author, rate the tab!
1 2 3 4 5
comments
print report bad tab
guest
You may want to rate the tab now too:
select rating
Wanna post a correction for this tab? Suggest correction