Oops, an error
Loading. Please wait.

Castlevania 3 - Dead Beat tab

version 1
version 1

Whole song

Interactive

25 views 3 this week
no commentswrite comment
1 2 3 4 5
3 more votes to show rating
add to favorites
×
Save as Personal and add changes to this tab that will be seen only by you. Learn more ›
×
You can save this tab as Personal to edit and correct it or add notes. All changes will be seen only by you. Learn more »
launch autoscroll
font size
0
reset
how to read this tab
guitar tuner
edit
Autoscroll
slow
fast
+/-
esc
set tempo
stop
#----------------------------------PLEASE NOTE---------------------------------#
#This file is the author's own work and represents their interpretation of the #
#song. You may only use this file for private study, scholarship, or research. #
#------------------------------------------------------------------------------##

Castlevania 3 - Dead Beat (Stage 4 theme)

Gtr I (E A D G B E) - 'Sawtooth'
Gtr II (E A D G B E) - 'Guitar'

     Q=150
     Gtr I
     E E E  E E E E  E   E E E  E E E E  E
e|--------------------|-------------------|
B|o-------------------|-------------------|
G|--9-8-9-10-9-8-9-10-|-9-8-9-10-9-8-9-10-|
D|--------------------|-------------------|
A|o-------------------|-------------------|
E|--------------------|-------------------|
|
 |   Gtr II
 |   E E E  E E E E  E   E E E  E E E E  E
e|--------------------|-------------------|
B|o-------------------|-------------------|
G|--------------------|-------------------|
D|--9-8-9-10-9-8-9-10-|-9-8-9-10-9-8-9-10-|
A|o-------------------|-------------------|
E|--------------------|-------------------|


    E  E  E  E  E  E  E  E    E  E  E  E  E  E  E  E
e|-12-11-12-13-12-11-12-13-|-14-13-14-15-14-13-14-15--|
B|-------------------------|--------------------------|
G|-------------------------|--------------------------|
D|-------------------------|--------------------------|
A|-------------------------|--------------------------|
E|-------------------------|--------------------------|
|
 |  E  E  E  E  E  E  E  E    E  E  E  E  E  E  E  E
e|-------------------------|--------------------------|
B|-------------------------|--------------------------|
G|-------------------------|--------------------------|
D|--9--8--9-10--9--8--9-10-|--9--8--9-10--9--8--9-10--|
A|-------------------------|--------------------------|
E|-------------------------|--------------------------|


    E  E  E  Q     Q    E    Q     E  Q     E  Q
e|----------12----10------|-11----11-10----10-------|
B|-10----10------------13-|-------------------13----|
G|-----9------------------|-------------------------|
D|------------------------|-------------------------|
A|------------------------|-------------------------|
E|------------------------|-------------------------|
|
 |  E  E  E  E  E  E E  E    E  E  E  E  E  E  E  E
e|------------------------|-------------------------|
B|------------------------|-------------------------|
G|--9--------9-------9----|--8--------8--------8----|
D|----10--7----10--7---10-|----10--7----10--7----10-|
A|------------------------|-------------------------|
E|------------------------|-------------------------|


    Q    E  E  E  E  E  E    +H.               +S. T  T  T  T T
e|-10---10-11-10----------|-------------------------------------|
B|---------------13-12-13-|-(13)--------------(13)------------9-|
G|------------------------|------------------------9-10-11-12---|
D|------------------------|-------------------------------------|
A|------------------------|-------------------------------------|
E|------------------------|-------------------------------------|
|
 |  E E  E  E  E  E  E  E     E  E  E  E E  E   E     E
e|------------------------|-------------------------------------|
B|------------------------|-------------------------------------|
G|--7-------7--------7----|-------------------------------------|
D|----9--6-----9--6-----9-|--10--7----10---10--------10---------|
A|------------------------|--------10----9------8---------------|
E|------------------------|-------------------------------------|


    E  E  E  Q     Q    E    Q     E  Q     E  Q
e|----------12----10------|-11----11-10----10-------|
B|-10----10------------13-|-------------------13----|
G|-----9------------------|-------------------------|
D|------------------------|-------------------------|
A|------------------------|-------------------------|
E|------------------------|-------------------------|
|
 |  E  E  E  E  E  E E  E    E  E  E  E  E  E  E  E
e|------------------------|-------------------------|
B|------------------------|-------------------------|
G|--9--------9-------9----|--8--------8--------8----|
D|----10--7----10--7---10-|----10--7----10--7----10-|
A|------------------------|-------------------------|
E|------------------------|-------------------------|


    Q    E  E  E  E  E  E    +H.               +S. T  T  T  T T
e|-10---10-11-10----------|-------------------------------------|
B|---------------13-12-10-|-(10)--------------(10)------------9-|
G|------------------------|------------------------9-10-11-12---|
D|------------------------|-------------------------------------|
A|------------------------|-------------------------------------|
E|------------------------|-------------------------------------|
|
 |  E E  E  E  E  E  E  E     E  E  E  E E  E   E     E
e|------------------------|-------------------------------------|
B|------------------------|-------------------------------------|
G|--7-------7--------7----|-------------------------------------|
D|----9--6-----9--6-----9-|--10--7----10---10--------10---------|
A|------------------------|--------10----9------8---------------|
E|------------------------|-------------------------------------|


    E  E  E  Q     Q     E    Q     E  Q     E  Q
e|----------12----10-------|-11----11-10----10-------|
B|-10----10-------------13-|-------------------13----|
G|-----9-------------------|-------------------------|
D|-------------------------|-------------------------|
A|-------------------------|-------------------------|
E|-------------------------|-------------------------|
|
 |  E  E  E  E  E  E  E  E    E  E  E  E  E  E  E  E
e|-12-------12-------12----|-11-------11-------11----|
B|----13-10----13-10----13-|----13-10----13-10----13-|
G|-------------------------|-------------------------|
D|-------------------------|-------------------------|
A|-------------------------|-------------------------|
E|-------------------------|-------------------------|


    Q     E  E  E  E  E  E    +H.                 +S. T  T  T  T T
e|-10----10-11-10----------|---------------------------------------|
B|----------------13-12-13-|-(13)----------------(13)------------9-|
G|-------------------------|--------------------------9-10-11-12---|
D|-------------------------|---------------------------------------|
A|-------------------------|---------------------------------------|
E|-------------------------|---------------------------------------|
|
 |  E  E  E  E  E  E  E  E     E   E  E  E  E  E   E     E
e|-10-------10-------10----|---------------------------------------|
B|----12--9----12--9----12-|--13--10----13----13--------13---------|
G|-------------------------|---------12----11-----10---------------|
D|-------------------------|---------------------------------------|
A|-------------------------|---------------------------------------|
E|-------------------------|---------------------------------------|


    E  E  E  Q     Q     E    Q     E  Q     E  Q
e|----------12----10-------|-11----11-10----10-------|
B|-10----10-------------13-|-------------------13----|
G|-----9-------------------|-------------------------|
D|-------------------------|-------------------------|
A|-------------------------|-------------------------|
E|-------------------------|-------------------------|
|
 |  E  E  E  E  E  E  E  E    E  E  E  E  E  E  E  E
e|-12-------12-------12----|-11-------11-------11----|
B|----13-10----13-10----13-|----13-10----13-10----13-|
G|-------------------------|-------------------------|
D|-------------------------|-------------------------|
A|-------------------------|-------------------------|
E|-------------------------|-------------------------|


                                                   |--3--|  |-3--|
    Q     E  E  E  E  E  E    +H.                 +S  S  S  S  S S
e|-10----10-11-10----------|---------------------------------------|
B|----------------13-12-10-|-(10)----------------(10)------------9-|
G|-------------------------|--------------------------9-10-11-12---|
D|-------------------------|---------------------------------------|
A|-------------------------|---------------------------------------|
E|-------------------------|---------------------------------------|
|
 |  E  E  E  E  E  E  E  E     E   E  E  E  E  E   E        E
e|-10-------10-------10----|---------------------------------------|
B|----12--9----12--9----12-|--13--10----13----13-----------13------|
G|-------------------------|---------12----11-----10---------------|
D|-------------------------|---------------------------------------|
A|-------------------------|---------------------------------------|
E|-------------------------|---------------------------------------|


    E    E    E  E E  Q  E    E  E  E E  E  E  E  E
e|-----------10-11---12----|------------------------|
B|-10---13-----------------|------------13-12-11-10-|
G|-----------------------9-|-12-11-10-9-------------|
D|-------------------------|------------------------|
A|-------------------------|------------------------|
E|-------------------------|------------------------|
|
 |  S S  S S  E  E E  Q  E    E  E  E E  E  E  E  E
e|-------------------------|------------------------|
B|-----------10-12---13----|------------------------|
G|--9-9--9-9-------------9-|------------12-11-10--9-|
D|-------------------------|-12-11-10-9-------------|
A|-------------------------|------------------------|
E|-------------------------|------------------------|


    +E      E     Q           Q           Q             E  E  E  Q   E  E  E
e|---------------------------------------10----------|-11-11-11-12-------------|
B|-(10)----10----12----------13----------------------|--------------13-10------|
G|---------------------------------------------------|---------------------9---|
D|---------------------------------------------------|-------------------------|
A|---------------------------------------------------|-------------------------|
E|---------------------------------------------------|-------------------------|
|
 |   S   S  S  S  S  S  S  S  S  S  S  S  S  S  S  S    E  E  E  Q   E  E  E
e|--17--16-15-14-13-14-15-16-17-16-15-14-13-14-15-16-|-17-17-17-17-------------|
B|---------------------------------------------------|--------------17---------|
G|---------------------------------------------------|-----------------17------|
D|---------------------------------------------------|-------------------------|
A|---------------------------------------------------|--------------------15---|
E|---------------------------------------------------|-------------------------|


    E    E    E  E E  Q  E    E E E E  E  E  E  E
e|-----------10-11---12----|----------------------|
B|-10---13-----------------|----------13-12-11-12-|
G|-----------------------9-|-10-9-8-9-------------|
D|-------------------------|----------------------|
A|-------------------------|----------------------|
E|-------------------------|----------------------|
|
 |  S S  S S  E  E E  Q  E    E E E E  E  E  E  E
e|-------------------------|----------------------|
B|-----------10-12---13----|----------------------|
G|--9-9--9-9-------------9-|----------10--9--8--9-|
D|-------------------------|-10-9-8-9-------------|
A|-------------------------|----------------------|
E|-------------------------|----------------------|


    +H.      E  S  S    H           E  E  S  S  E
e|-------------10-11-|-12----------------------24--||
B|-(12)--------------|-------------20-21-22-------o||
G|-------------------|----------------------21-----||
D|-------------------|-----------------------------||
A|-------------------|----------------------------o||
E|-------------------|-----------------------------||
|
 |  +H.      E  S  S    E  E  E  E  E  E  S  S  E
e|-------------------|-------------10-11-------12--||
B|-------------10-11-|-12-------------------12----o||
G|--(9)--------------|----12-11-10--------9--------||
D|-------------------|-----------------------------||
A|-------------------|----------------------------o||
E|-------------------|-----------------------------||



************************************

| (n)  Ghost note

************************************
Suggest correction
Creating personal tab
Creating personal tab
You can edit any tab online and save it as your Personal.

You can edit, replace or remove any tab part or add personal notes – all changes will be seen only by you.

Personal tabs can be accessed anytime from any device, even offline.
Learn more »
Give kudos to tab author, rate the tab!
1 2 3 4 5
comments
print report bad tab
guest
You may want to rate the tab now too:
select rating
Wanna post a correction for this tab? Suggest correction