Oops, an error
Loading. Please wait.

Castlevania 3 - Mad Forest tab

version 1
version 1

Whole song

Interactive

121 views 9 this week
no commentswrite comment
1 2 3 4 5
3 more votes to show rating
add to favorites
×
Save as Personal and add changes to this tab that will be seen only by you. Learn more ›
×
You can save this tab as Personal to edit and correct it or add notes. All changes will be seen only by you. Learn more »
launch autoscroll
font size
0
reset
how to read this tab
guitar tuner
edit
Autoscroll
slow
fast
+/-
esc
set tempo
stop
#----------------------------------PLEASE NOTE---------------------------------#
#This file is the author's own work and represents their interpretation of the #
#song. You may only use this file for private study, scholarship, or research. #
#------------------------------------------------------------------------------##

Castlevania 3 - Mad Forest (Stage 3 theme)

Gtr I (E A D G B E) - 'Sawtooth'
Gtr II (E A D G B E) - 'Squarewave'
Gtr III (E A D G B E) - 'Guitar'

     Gtr I
      E. S +E  E  E. S +S   S E   +E  E  S S E +S   S S  S  +Q
e||-----------------------------|--------------------------------|
B||o----------------------------|--------------------------------|
G||-----------------------------|--------------------------------|
D||------------7-10--9-(9)----7-|-(7)----------------------------|
A||o-----8-(8)-------------10---|-----8-10---7-(7)---------------|
E||--10-------------------------|----------8-------10-8-10-(10)--|
 |
 |   Gtr II
 |    E. S +E  E  E. S +S   S E   +E  E  S S E +S   S S  S  +Q
e||-----------------------------|--------------------------------|
B||o----------------------------|--------------------------------|
G||-----------------------------|--------------------------------|
D||------------7-10--9-(9)----7-|-(7)----------------------------|
A||o-----8-(8)-------------10---|-----8-10---7-(7)---------------|
E||--10-------------------------|----------8-------10-8-10-(10)--|


   E. S +E   E E E  S E  S    S  S  S  S  E E E S S S  S S S
e|-------------------------|----------------------------------|
B|-------------------------|----------------------------------|
G|-------------9-7---------|--8--8--8--8--8--------------5-6--|
D|----7-(7)--------10-9-10-|--7--7--7--7--7-----6-7-8--9------|
A|-8-----------------------|----------------------------------|
E|-----------8-------------|----------------------------------|
 |
 | E. S +E   E E E  S E  S    S  S  S  S  E E E S S S  S S S
e|-------------------------|----------------------------------|
B|-------------------------|----------------------------------|
G|-------------9-7---------|----------------------------------|
D|----7-(7)-10-----10-9-10-|-11-11-11-11-11--------------6-7--|
A|-8-----------------------|--------------------7-8-9-10------|
E|-------------------------|----------------------------------|


   S S  S S  S  S  S  S S  S  S S  S S  S  S    E    S  S  +Q.             E  E     E
e|-------------------10------10--------------|------------------------------------------|
B|-------------10---------10------10---10----|-10---10-10-(10)---------------10---------|
G|---7-10----7----------7-------7----7-------|----------------------------10-------10---|
D|-7------7--------7----------------------10-|------------------------------------------|
A|-------------------------------------------|------------------------------------------|
E|-------------------------------------------|------------------------------------------|
 |
 | S S  S S  S  S  S  S S  S  S S  S S  S  S    S S  S  S  +S  S  S S +Q     +S  S  S S
e|-------------------------------------------|------------------------------------------|
B|-------------------10-------8--------------|------------------------------------------|
G|-7----7----7-----7-------7------10----9----|--9---10--7--(7)-9-10-7-(7)----(7)-9-10-7-|
D|---7----7-----7-------7-------7----7-----7-|----7-------------------------------------|
A|-------------------------------------------|------------------------------------------|
E|-------------------------------------------|------------------------------------------|
 |
 | Gtr III
 | E    E    E     Q          E    E    E       E    S  S  +Q.             E  E     E
e|----------------17---------15--------------|------------------------------------------|
B|----------15--------------------18---17----|-17---18-15-(15)---------------15---------|
G|-----14------------------------------------|----------------------------14-------14---|
D|-------------------------------------------|------------------------------------------|
A|-------------------------------------------|------------------------------------------|
E|-------------------------------------------|------------------------------------------|


   S S  S S  S  S  S  S  +E   S S  S S  S S    S  S  Q.    S  S  S  S  S  S  S  S
e|--------------6----10-(10)-------6---10---|-------------21-18-------18-------------|
B|---6--9----9----------------9-------------|-10-12-14----------20-17----20-17-------|
G|--------7--------7----------------------7-|----------------------------------17----|
D|-6----------------------------6----8------|----------------------------------------|
A|------------------------------------------|----------------------------------------|
E|------------------------------------------|----------------------------------------|
 |
 | E    E    S  S  Q          E    E    E      S  S  Q.    S  S  S  S  S  S  S  S
e|-----10---10-12-13-------------------10---|-------------12-------------------------|
B|---------------------------11---13--------|-10-12-14-------13-11----13-11----------|
G|------------------------------------------|----------------------12-------12-10----|
D|------------------------------------------|----------------------------------------|
A|------------------------------------------|----------------------------------------|
E|------------------------------------------|----------------------------------------|
 |
 | E    E    S  S  Q          E    E    E      S  S  Q.    S  S  S  S  S  S  S  S
e|------------------------------------------|-------------27-24-------24-------------|
B|-------------15-18--------------15---18---|-14-15-17----------26-23----26-23-------|
G|-----15---15---------------15-------------|----------------------------------24----|
D|------------------------------------------|----------------------------------------|
A|------------------------------------------|----------------------------------------|
E|------------------------------------------|----------------------------------------|


   S S  S S  S  S  S  S S  S  S S  S S  S  S    E    S  S  +Q.             E  E     E
e|-------------------10------10--------------|------------------------------------------|
B|-------------10---------10------10---10----|-10---10-10-(10)---------------10---------|
G|---7-10----7----------7-------7----7-------|----------------------------10-------10---|
D|-7------7--------7----------------------10-|------------------------------------------|
A|-------------------------------------------|------------------------------------------|
E|-------------------------------------------|------------------------------------------|
 |
 | S S  S S  S  S  S  S S  S  S S  S S  S  S    S S  S  S  +S  S  S S +Q     +S  S  S S
e|-------------------------------------------|------------------------------------------|
B|-------------------10-------8--------------|------------------------------------------|
G|-7----7----7-----7-------7------10----9----|--9---10--7--(7)-9-10-7-(7)----(7)-9-10-7-|
D|---7----7-----7-------7-------7----7-----7-|----7-------------------------------------|
A|-------------------------------------------|------------------------------------------|
E|-------------------------------------------|------------------------------------------|
 |
 | E    E    S  S  Q          E    E    E       E    S  S  +Q.             E  E     E
e|----------------17---------15--------------|------------------------------------------|
B|-------------15-----------------18---17----|-17---18-15-(15)---------------15---------|
G|-----14---14-------------------------------|----------------------------14-------14---|
D|-------------------------------------------|------------------------------------------|
A|-------------------------------------------|------------------------------------------|
E|-------------------------------------------|------------------------------------------|


   S S  S S  S  S  S  S  +E   S S  S S  S S    S  S  Q.    S  S  S  S  S  S  S  S
e|--------------6----10-(10)-------6---10---|-------------21-18-------18-------------|
B|---6--9----9----------------9-------------|-10-12-14----------20-17----20-17-------|
G|--------7--------7----------------------7-|----------------------------------17----|
D|-6----------------------------6----8------|----------------------------------------|
A|------------------------------------------|----------------------------------------|
E|------------------------------------------|----------------------------------------|
 |
 | E    E    S  S  Q          E    E    E      S  S  Q.    S  S  S  S  S  S  S  S
e|-----10---10-12-13-------------------10---|-------------12-------------------------|
B|---------------------------11---13--------|-10-12-14-------13-11----13-11----------|
G|------------------------------------------|----------------------12-------12-10----|
D|------------------------------------------|----------------------------------------|
A|------------------------------------------|----------------------------------------|
E|------------------------------------------|----------------------------------------|
 |
 | E    E    S  S  Q          E    E    E      S  S  Q.    S  S  S  S  S  S  S  S
e|------------------------------------------|-------------27-24-------24-------------|
B|-------------15-18--------------15---18---|-14-15-17----------26-23----26-23-------|
G|-----15---15---------------15-------------|----------------------------------24----|
D|------------------------------------------|----------------------------------------|
A|------------------------------------------|----------------------------------------|
E|------------------------------------------|----------------------------------------|


    E     E     E     Q           E     E     E       E     E     E     Q           E     E     E
e|-------------------10----------------------------|-------------------10----------10----------------|
B|-------11----11----------------------------11----|-------10----10----------------------10----------|
G|-------------------------------10----10----------|-------------------------------------------10----|
D|-------------------------------------------------|-------------------------------------------------|
A|-------------------------------------------------|-------------------------------------------------|
E|-------------------------------------------------|-------------------------------------------------|
 |
 |  S  S  S  S  S  S  S  S  S  S  S  S  S  S  S  S    S  S  S  S  S  S  S  S  S  S  S  S  S  S  S  S
e|-------------------------------------------------|-------------------------------------------------|
B|-------------------------------------------------|-------------------------------------------------|
G|-------------------------------------------------|-------------------------------------------------|
D|-------------------------------------------------|-------------------------------------------------|
A|-10-11-10-11-10-11-10-11-10-11-10-11-10-11-10-11-|-12-11-12-11-12-11-12-11-12-11-12-11-12-11-12-13-|
E|-------------------------------------------------|-------------------------------------------------|
 |
 |  E     E     E     Q           E     E     E       E     E     E     Q           E     E     E
e|-------------------------------------------------|-------------------15----------------------------|
B|-------15----17----18----------------------15----|-------15----17----------------18----17----15----|
G|-------------------------------15----17----------|-------------------------------------------------|
D|-------------------------------------------------|-------------------------------------------------|
A|-------------------------------------------------|-------------------------------------------------|
E|-------------------------------------------------|-------------------------------------------------|


    S  S  S  S  S  S  S  S   S   S  S  S  S  S  S  S    S  S  Q       S  S  +S   E.  +S   S  S  S
e|----------------------10--13-----13----12----10----|--------------------------------------15-17---|
B|-12----------12----12---------12----12----12----12-|----12-14------14-15-(15)-17--(17)-17---------|
G|----13-11-13----13---------------------------------|----------------------------------------------|
D|---------------------------------------------------|-11-------------------------------------------|
A|---------------------------------------------------|----------------------------------------------|
E|---------------------------------------------------|----------------------------------------------|
 |
 |  S  S  S  S  E     E     +Q            E     E       S  S  E  +E.     S  +S   E.  +E      S  S
e|---------------------------------------------------|----------------------------------------------|
B|---------------------------------------------------|-----------------------------------------10---|
G|-------------------10----(10)----------------------|---------------------------9---(9)----12------|
D|-------------12------------------------14----12----|-11--9-11-(11)----12-(12)---------------------|
A|-12----11-12---------------------------------------|----------------------------------------------|
E|----13---------------------------------------------|----------------------------------------------|
 |
 |  E     E     E     Q             E     E     E       S  S  Q       S  S  +S   E.   S   S  S  S
e|-------------------16------------16----15----------|-----------------------------------17-18-21---|
B|-------15----18------------------------------18----|-17-15-17------17-18-(18)-20---20-------------|
G|---------------------------------------------------|----------------------------------------------|
D|---------------------------------------------------|----------------------------------------------|
A|---------------------------------------------------|----------------------------------------------|
E|---------------------------------------------------|----------------------------------------------|


    E     E     E     Q           E     E     E       E     E     E     Q           E     E     E
e|-------------------22----------------------------|-------------------22----------22----------------|
B|-------23----23----------------------------23----|-------22----22----------------------22----------|
G|-------------------------------22----22----------|-------------------------------------------22----|
D|-------------------------------------------------|-------------------------------------------------|
A|-------------------------------------------------|-------------------------------------------------|
E|-------------------------------------------------|-------------------------------------------------|
 |
 |  S  S  S  S  S  S  S  S  S  S  S  S  S  S  S  S    S  S  S  S  S  S  S  S  S  S  S  S  S  S  S  S
e|-------------------------------------------------|-------------------------------------------------|
B|-------------------------------------------------|-------------------------------------------------|
G|-12-13-12-13-12-13-12-13-12-13-12-13-12-13-12-13-|-14-13-14-13-14-13-14-13-14-13-14-13-14-13-14-15-|
D|-------------------------------------------------|-------------------------------------------------|
A|-------------------------------------------------|-------------------------------------------------|
E|-------------------------------------------------|-------------------------------------------------|
 |
 |  E     E     E     Q           E     E     E       E     E     E     Q           E     E     E
e|-------------------------------------------------|-------------------15----------------------------|
B|-------15----17----18----------------------15----|-------15----17----------------18----17----15----|
G|-------------------------------15----17----------|-------------------------------------------------|
D|-------------------------------------------------|-------------------------------------------------|
A|-------------------------------------------------|-------------------------------------------------|
E|-------------------------------------------------|-------------------------------------------------|


    E     E     E     Q        S  S  S  S  S  S    Q           Q           Q            Q
e|----------------------------------------------|------------------------------------------------------|
B|-------------------------------------------12-|------------------------------------------------------|
G|-------------------10----------10-13-10-13----|------------------------------------------------------|
D|--------9----12-------------12----------------|-11----------12----------13-----------14--------------|
A|----------------------------------------------|------------------------------------------------------|
E|----------------------------------------------|------------------------------------------------------|
 |
 |  S  S  S  S  S  S  S  S  Q        E     E       S  S  S  S  S  S  S  S  S  S  S  S  +S   S  S  S
e|----------------------------------10----13----|-------------16-------16-17-------17-(17)-15----------|
B|-12----------12----------12-------------------|-17----14-17-------15----------16------------16-------|
G|----13-10-13----13-10-13----------------------|----14----------16----------15------------------14----|
D|----------------------------------------------|------------------------------------------------------|
A|----------------------------------------------|------------------------------------------------------|
E|----------------------------------------------|------------------------------------------------------|
 |
 |  E     E     E     Q        E     E     E       Q           Q           Q            Q
e|----------------------------------------------|------------------------------------------------------|
B|-------15----17----18-------------------------|-10----------12----------13-----------14--------------|
G|----------------------------10----12----13----|------------------------------------------------------|
D|----------------------------------------------|-11----------12----------13-----------14--------------|
A|----------------------------------------------|------------------------------------------------------|
E|----------------------------------------------|------------------------------------------------------|


    E.  S  +E   E  E.  S  +E   E    E.  S  +E      E  E.  S  +E      E
e|-10-------------------------10-|-13-------------10-13--------------9-|
B|----------------10--13-(13)----|-----12-(12)-----------11-(11)-------|
G|-----10-(10)-12----------------|-------------------------------------|
D|-------------------------------|-------------------------------------|
A|-------------------------------|-------------------------------------|
E|-------------------------------|-------------------------------------|
 |
 |  E.  S  +E   E  E.  S  +E   E    H                 H
e|-------------------------------|-------------------------------------|
B|-10-------------------------10-|--9----------------------------------|
G|-----------------9--12-(12)----|-------------------12----------------|
D|-----10-(10)-12----------------|-------------------------------------|
A|-------------------------------|-------------------------------------|
E|-------------------------------|-------------------------------------|
 |
 |  E.  S  +E   E  E.  S  +E   E    E.  S  +S   S  E  E.  S  +S   S  E
e|-22-----------------20-(20)-22-|-25-------------22-25-------------21-|
B|-------------20-22-------------|-----21-(21)-24--------20-(20)-23----|
G|-----22-(22)-------------------|-------------------------------------|
D|-------------------------------|-------------------------------------|
A|-------------------------------|-------------------------------------|
E|-------------------------------|-------------------------------------|


    E.  S  +E   E  E.  S  +E   E    E.  S  +S   S  E  S  S  S  S  S  S  S  S
e|-10-------------------------10-|-------------------17-------------------------||
B|----------------10--13-(13)----|-18--17-(17)-18-20----18---------------------o||
G|-----10-(10)-12----------------|-------------------------18-------------------||
D|-------------------------------|----------------------------19-15-14----------||
A|-------------------------------|-------------------------------------16------o||
E|-------------------------------|----------------------------------------17----||
 |
 |  E.  S  +E   E  E.  S  +E   E    H                 E     E     E     S  S
e|-------------------------------|----------------------------------------------||
B|-10-------------------------10-|--9----------------10-----9------------------o||
G|-----------------9--12-(12)----|----------------------------------------------||
D|-----10-(10)-12----------------|-------------------------------11-------------||
A|-------------------------------|-------------------------------------12-10---o||
E|-------------------------------|----------------------------------------------||
 |
 |  E.  S  +E   E  E.  S  +E   E    E.  S  +S   S  E  H
e|-22-----------------20-(20)-22-|-------------------17-------------------------||
B|-------------20-22-------------|-18--17-(17)-18-20---------------------------o||
G|-----22-(22)-------------------|----------------------------------------------||
D|-------------------------------|----------------------------------------------||
A|-------------------------------|---------------------------------------------o||
E|-------------------------------|----------------------------------------------||



************************************

| (n)  Ghost note
| o    reprise   

************************************

            
            
Suggest correction
Creating personal tab
Creating personal tab
You can edit any tab online and save it as your Personal.

You can edit, replace or remove any tab part or add personal notes – all changes will be seen only by you.

Personal tabs can be accessed anytime from any device, even offline.
Learn more »
Give kudos to tab author, rate the tab!
1 2 3 4 5
comments
print report bad tab
guest
You may want to rate the tab now too:
select rating
Wanna post a correction for this tab? Suggest correction