Oops, an error
Loading. Please wait.

Castlevania 3 - Prayer Tab

version 1
version 1

Whole song

Interactive

19 views 1 this week
no commentswrite comment
1 2 3 4 5
3 more votes to show rating
add to favorites
launch autoscroll
font size
0
reset
how to read this tab
guitar tuner
Autoscroll
slow
fast
+/-
esc
set tempo
stop
Help us to improve Ultimate-Guitar.com Take our survey!
×
Author
Difficulty
intermediate
#----------------------------------PLEASE NOTE---------------------------------#
#This file is the author's own work and represents their interpretation of the #
#song. You may only use this file for private study, scholarship, or research. #
#------------------------------------------------------------------------------##

Castlevania 3 (NES) - Prayer (Map theme)

Gtr I (E A D G B E) - 'Drawbar Organ'
Gtr II (E A D G B E) - 'Reed Organ'

   Q=110
   Gtr I
    T   T  E.  +Q.        E  E  E    Q.    E  Q   Q
e|-12--11-12--(12)----------------|----------11--12--|
B|-----------------------12-13-15-|-13----12---------|
G|--------------------------------|------------------|
D|--------------------------------|------------------|
A|--------------------------------|------------------|
E|--------------------------------|------------------|
 |
 | Gtr II
 |  Q.              E  Q     E  E    Q.    E  Q   Q
e|--------------------------------|------------------|
B|-----------------10-12----10-12-|------------------|
G|-12-----------------------------|--8-------11---9--|
D|--------------------------------|--------9---------|
A|--------------------------------|------------------|
E|--------------------------------|------------------|


    +S   S  S  S  S  S  S  S  S  S  S  S  S  S  S  S
e|-(12)-12-11-12----12----12----12----12----12----11-|
B|---------------14----12----11----12----14----11----|
G|---------------------------------------------------|
D|---------------------------------------------------|
A|---------------------------------------------------|
E|---------------------------------------------------|
 |
 |   W
e|---------------------------------------------------|
B|---------------------------------------------------|
G|--12-----------------------------------------------|
D|---------------------------------------------------|
A|---------------------------------------------------|
E|---------------------------------------------------|


    Q.    +S   S  E  Q.      +Q
e|-12----(12)-11----11----|-(11)----|
B|---------------14-------|---------|
G|------------------------|---------|
D|------------------------|---------|
A|------------------------|---------|
E|------------------------|---------|
 |
 |  W                        +Q
e|------------------------|---------|
B|-10---------------------|-(10)----|
G|------------------------|---------|
D|------------------------|---------|
A|------------------------|---------|
E|------------------------|---------|


************************************

| (n)  Ghost note

************************************
Suggest correction
Give kudos to tab author, rate the tab!
1 2 3 4 5
comments
print report bad tab
guest
You may want to rate the tab now too:
select rating
Wanna post a correction for this tab? Suggest correction