Oops, an error
Loading. Please wait.

Castlevania 3 - Prelude Bass Tab

version 1
version 1

Whole song

Interactive

13 views 1 this week
no commentswrite comment
1 2 3 4 5
3 more votes to show rating
add to favorites
launch autoscroll
font size
0
reset
guitar tuner
Autoscroll
slow
fast
+/-
esc
set tempo
stop
Help us to improve Ultimate-Guitar.com Take our survey!
×
Author
Difficulty
#----------------------------------PLEASE NOTE---------------------------------#
#This file is the author's own work and represents their interpretation of the #
#song. You may only use this file for private study, scholarship, or research. #
#------------------------------------------------------------------------------##

Castlevania 3 (NES) - Prelude (Intro theme)...on bass!!!

Gtr I (B E A D G) - 'bass'

  Q=105
 3/4
  Gtr I
  H    Q    H    Q    H    Q    H    Q
G|---------|---------|---------|--------|
D|---------|---------|---------|--------|
A|---------|---------|---------|--------|
E|---------|---------|---------|--------|
B|---------|---------|---------|--------|


  E E H      +Q   H      +Q   H      +Q     H
|----------|-----------|-----------|----------|
|-----3----|-(3)-------|-----------|----------|
|----------|------4----|-(4)--5----|-(5)------|
|---4------|-----------|-----------|--------3-|
|----------|-----------|-----------|----------|


  +H     Q    H    Q    H    Q    H    Q
|-----------|---------|---------|--------|
|-----------|---------|---------|--------|
|-----------|---------|---------|--------|
|-(3)-------|---------|---------|--------|
|-----------|---------|---------|--------|


  H    Q    +H     Q    +H     Q    +H     Q
|---------|-----------|-----------|------------|
|---------|-----------|-----------|------------|
|------3--|-(3)----3--|-(3)----3--|-(3)----3---|
|---------|-----------|-----------|------------|
|---------|-----------|-----------|------------|


  +H     Q    +H     Q    +H     Q    +H     Q
|-----------|-----------|-----------|------------|
|-----------|-----------|--------5--|-(5)--------|
|-(3)----3--|-(3)----3--|-(3)-------|------------|
|-----------|-----------|-----------|--------3---|
|-----------|-----------|-----------|------------|


  +H     Q    +Q   Q  Q    +Q   Q  Q    +Q   Q  Q
|-----------|------------|------------|-------------|
|-----------|------------|------------|-------------|
|--------3--|-(3)-----3--|-(3)-----3--|-(3)-----3---|
|-(3)-------|------------|------------|-------------|
|-----------|------1-----|------1-----|------1------|


  +Q   Q  Q    +Q   Q  Q    +Q   Q  Q    +Q   Q   Q
|------------|------------|------------|------7--12---|
|------------|------------|---------5--|-(5)----------|
|-(3)-----3--|-(3)-----3--|-(3)--------|--------------|
|------------|------------|------------|--------------|
|------1-----|------1-----|------1-----|--------------|


   +Q   E E E E   E E E E E E   E E E E E E   E E E E E E
|-(12)----------|-------------|-------------|---------------|
|-------5-5-6-6-|-6-6-6-6-----|-------------|---------5-5---|
|---------------|---------6-6-|-6-6-6-6-4-4-|-4-4-4-4-------|
|---------------|-------------|-------------|---------------|
|---------------|-------------|-------------|---------------|


  E E E E E E   E E E E E E   E E E E E E   E E E E E E
|-------------|-------------|-------------|---------------|
|-----5-5-6-6-|-6-6-6-6-----|-------------|---------------|
|-5-5---------|---------6-6-|-6-6-6-6-4-4-|-4-4-4-4-5-5---|
|-------------|-------------|-------------|---------------|
|-------------|-------------|-------------|---------------|


  E E E E Q    Q  Q  Q    Q  Q  Q    Q  Q  Q
|------------|----------|----------|------------|
|-----5-3----|----------|----------|------------|
|-5-5-----6--|-6--6--6--|-6--6--6--|-6--6--6----|
|------------|----------|----------|------------|
|------------|----------|----------|------------|


  Q  Q  E E   E E E E E E   E E E E E E   E E E E Q
|---------8-|---8---8---8-|---8---8---8-|---8---8------|
|-----------|-------------|-------------|--------------|
|-6--6--6---|-6---6---6---|-6---6---6---|-6---6---4----|
|-----------|-------------|-------------|--------------|
|-----------|-------------|-------------|--------------|


  +H.        +H     Q
|----------|-------------|
|----------|-------------|
|-(4)------|-(4)---------|
|----------|-------------|
|----------|-------------|


Suggest correction
Give kudos to tab author, rate the tab!
1 2 3 4 5
comments
print report bad tab
guest
You may want to rate the tab now too:
select rating
Wanna post a correction for this tab? Suggest correction