Oops, an error
Loading. Please wait.

Castlevania 3 - Rising tab

version 1
version 1

Whole song

Interactive

25 views 1 this week
no commentswrite comment
1 2 3 4 5
3 more votes to show rating
add to favorites
×
Save as Personal and add changes to this tab that will be seen only by you. Learn more ›
×
You can save this tab as Personal to edit and correct it or add notes. All changes will be seen only by you. Learn more »
launch autoscroll
font size
0
reset
how to read this tab
guitar tuner
edit
Autoscroll
slow
fast
+/-
esc
set tempo
stop
#----------------------------------PLEASE NOTE---------------------------------#
#This file is the author's own work and represents their interpretation of the #
#song. You may only use this file for private study, scholarship, or research. #
#------------------------------------------------------------------------------##

Castlevania 3 - Rising (Stage 7 theme)

Gtr I (E A D G B E) - 'Sawtooth'
Gtr II (E A D G B E) - 'Squarewave'

     Gtr II
e||--13-----------13------------|-13-----------13-----------|
B||o-----15----------15---------|-----15-----------15-------|
G||---------14-----------14-----|--------14-----------14----|
D||------------12------------12-|-----------12-----------12-|
A||o----------------------------|---------------------------|
E||-----------------------------|---------------------------|
|
 |   Gtr I
e||-----------------------------|---------------------------|
B||o----------------------------|------------9-(9)-----9-10-|
G||--10-----------------(10)--9-|-(9)-----------------------|
D||-----------------------------|---------------------------|
A||o----------------------------|---------------------------|
E||-----------------------------|---------------------------|

e|--13-----------13----------|--13-----------13----------|
B|------15----------15-------|------15-----------15------|
G|---------14----------14----|---------14-----------14---|
D|------------12----------12-|------------12-----------12|
A|---------------------------|---------------------------|
E|---------------------------|---------------------------|
|
 |   ~~~~                        ~~~~
e|---------------------------|-------------8-(8)----10---|
B|-(10)-----------------9-12-|-(12)----------------------|
G|---------------------------|---------------------------|
D|---------------------------|---------------------------|
A|---------------------------|---------------------------|
E|---------------------------|---------------------------|

e|-------------------------------------------------------|
B|------------------------13-(13)-------13-(13)----------|
G|------------------12-14---------12-14---------12-12-14-|
D|-----------7--(7)--------------------------------------|
A|--5--7--8----------------------------------------------|
E|-------------------------------------------------------|
|
e|----------------------------------------------------10-|
B|----------13-(13)------------------------(13)----13----|
G|-10-12-14----------------------------------------------|
D|-------------------------------------------------------|
A|-------------------------------------------------------|
E|-------------------------------------------------------|

e|----------------------------------------------------------|
B|------------------------12-(12)-------12-(12)-------------|
G|------------------12-13---------12-13---------12-12-14----|
D|-----------6--(6)-----------------------------------------|
A|--5--7--8-------------------------------------------------|
E|----------------------------------------------------------|
|
e|----------------------------------------------------------|
B|----------12-(12)------------------------(12)-11-11-13----|
G|-10-12-13-------------------------------------------------|
D|----------------------------------------------------------|
A|----------------------------------------------------------|
E|----------------------------------------------------------|

e|-------------------------------------------------------|
B|------------------------13-(13)-------13-(13)----------|
G|------------------12-14---------12-14---------12-12-14-|
D|-----------7--(7)--------------------------------------|
A|--5--7--8----------------------------------------------|
E|-------------------------------------------------------|
|
e|----------------------------------------------------10-|
B|----------13-(13)------------------------(13)----13----|
G|-10-12-14----------------------------------------------|
D|-------------------------------------------------------|
A|-------------------------------------------------------|
E|-------------------------------------------------------|

e|------------------12----10-(10)-12------------|
B|-13-10---------------13-----------------------|
G|-------10-12-(12)-----------------------------|
D|----------------------------------------------|
A|-----------------------------------11-10-9----|
E|----------------------------------------------|
|
e|-13-12----10-(10)-----------------------------|
B|-------13-------------------------------------|
G|-----------------------------------10--9-8----|
D|----------------------------------------------|
A|----------------------------------------------|
E|----------------------------------------------|

e|-------------------------------------------------------|
B|------------------------13-(13)-------13-(13)----------|
G|------------------12-14---------12-14---------12-12-14-|
D|-----------7--(7)--------------------------------------|
A|--5--7--8----------------------------------------------|
E|-------------------------------------------------------|
|
e|----------------------------------------------------10-|
B|----------13-(13)------------------------(13)----13----|
G|-10-12-14----------------------------------------------|
D|-------------------------------------------------------|
A|-------------------------------------------------------|
E|-------------------------------------------------------|

e|----------------------------------------------------------|
B|------------------------12-(12)-------12-(12)-------------|
G|------------------12-13---------12-13---------12-12-14----|
D|-----------6--(6)-----------------------------------------|
A|--5--7--8-------------------------------------------------|
E|----------------------------------------------------------|
|
e|----------------------------------------------------------|
B|----------12-(12)------------------------(12)-11-11-13----|
G|-10-12-13-------------------------------------------------|
D|----------------------------------------------------------|
A|----------------------------------------------------------|
E|----------------------------------------------------------|

e|-------------------------------------------------------|
B|------------------------13-(13)-------13-(13)----------|
G|------------------12-14---------12-14---------12-12-14-|
D|-----------7--(7)--------------------------------------|
A|--5--7--8----------------------------------------------|
E|-------------------------------------------------------|
|
e|----------------------------------------------------10-|
B|----------13-(13)------------------------(13)----13----|
G|-10-12-14----------------------------------------------|
D|-------------------------------------------------------|
A|-------------------------------------------------------|
E|-------------------------------------------------------|

e|----------10-(10)-12-13-15-(15)-12-13-15-(15)------------|
B|-13-10-13------------------------------------------------|
G|-----------------------------------------------9-10-12---|
D|---------------------------------------------------------|
A|---------------------------------------------------------|
E|---------------------------------------------------------|
|
e|-13-12-13-15-(15)------------------------(15)------------|
B|----------------------------------------------10-11-13---|
G|---------------------------------------------------------|
D|---------------------------------------------------------|
A|---------------------------------------------------------|
E|---------------------------------------------------------|

e|-----------------|---------------|------------------|
B|------9------9---|-----7-----7---|------------------|
G|----8------8-----|---6-----6-----|---------------11-|
D|-10-----10-------|-8-----8-------|----8-11--8-11----|
A|-----------------|---------------|-9----------------|
E|-----------------|---------------|------------------|
|
e|------8------8---|-----6-----6---|------------------|
B|----9------9-----|---7-----7-----|---------------11-|
G|--8------8-------|-6-----6-------|------11----11----|
D|-----------------|---------------|-8-11----11-------|
A|-----------------|---------------|------------------|
E|-----------------|---------------|------------------|

e|-----------------|---------------|--------------------|
B|------9------9---|-----7-----7---|--------------------|
G|----8------8-----|---6-----6-----|---------------11---|
D|-10-----10-------|-8-----8-------|----8-11--8-11------|
A|-----------------|---------------|-9------------------|
E|-----------------|---------------|--------------------|
|
e|------8------8---|-----6-----6---|--------------------|
B|----9------9-----|---7-----7-----|---------------11---|
G|--8------8-------|-6-----6-------|------11----11------|
D|-----------------|---------------|-8-11----11---------|
A|-----------------|---------------|--------------------|
E|-----------------|---------------|--------------------|

e|---------------|---------------|-------------|---------------|
B|-----7-----7---|-----5-----5---|-------------|-----7-----7---|
G|---6-----6-----|---4-----4-----|-----------9-|---6-----6-----|
D|-8-----8-------|-6-----6-------|---6-9-6-9---|-8-----8-------|
A|---------------|---------------|-7-----------|---------------|
E|---------------|---------------|-------------|---------------|
|
e|-----6-----6---|-----4-----4---|-----------4-|-----6-----6---|
B|---7-----7-----|---5-----5-----|-----5---5---|---7-----7-----|
G|-6-----6-------|-4-----4-------|---4---4-----|-6-----6-------|
D|---------------|---------------|-6-----------|---------------|
A|---------------|---------------|-------------|---------------|
E|---------------|---------------|-------------|---------------|

e|---------------|------------------------------------------|
B|-----5-----5---|------------------------------------------|
G|---4-----4-----|-7----7-----8-----8-----9-----12----------|
D|-6-----6-------|---8----8-----9-----9-----10-----11-------|
A|---------------|------------------------------------------|
E|---------------|------------------------------------------|
|
e|-----4-----4---|------------------------------------------|
B|---5-----5-----|-9----9----10----10----11------------12---|
G|-4-----4-------|------------------------------------------|
D|---------------|-6----6-----7-----7-----8-------------9---|
A|---------------|------------------------------------------|
E|---------------|------------------------------------------|

e|-----------------|---------------|------------------|
B|------9------9---|-----7-----7---|------------------|
G|----8------8-----|---6-----6-----|---------------11-|
D|-10-----10-------|-8-----8-------|----8-11--8-11----|
A|-----------------|---------------|-9----------------|
E|-----------------|---------------|------------------|
|
e|------8------8---|-----6-----6---|------------------|
B|----9------9-----|---7-----7-----|---------------11-|
G|--8------8-------|-6-----6-------|------11----11----|
D|-----------------|---------------|-8-11----11-------|
A|-----------------|---------------|------------------|
E|-----------------|---------------|------------------|

e|-----------------|---------------|--------------------|
B|------9------9---|-----7-----7---|--------------------|
G|----8------8-----|---6-----6-----|---------------11---|
D|-10-----10-------|-8-----8-------|----8-11--8-11------|
A|-----------------|---------------|-9------------------|
E|-----------------|---------------|--------------------|
|
e|------8------8---|-----6-----6---|--------------------|
B|----9------9-----|---7-----7-----|---------------11---|
G|--8------8-------|-6-----6-------|------11----11------|
D|-----------------|---------------|-8-11----11---------|
A|-----------------|---------------|--------------------|
E|-----------------|---------------|--------------------|

e|---------------|---------------|-------------|
B|-----7-----7---|-----5-----5---|-------------|
G|---6-----6-----|---4-----4-----|-----------9-|
D|-8-----8-------|-6-----6-------|---6-9-6-9---|
A|---------------|---------------|-7-----------|
E|---------------|---------------|-------------|
|
e|-----6-----6---|-----4-----4---|-----------4-|
B|---7-----7-----|---5-----5-----|-----5---5---|
G|-6-----6-------|-4-----4-------|---4---4-----|
D|---------------|---------------|-6-----------|
A|---------------|---------------|-------------|
E|---------------|---------------|-------------|

e|-------------------------------15-18---------------||
B|------------------------14--17--------------------o||
G|------------------12-15----------------------------||
D|------------11-14----------------------------------||
A|------10-13--------------------------------13-16--o||
E|-9-12--------------------------------12-15---------||
|
e|-5--6--5--6--5--6--5----(5)------------------------||
B|--------------------------------------------5--8--o||
G|--------------------------------------3--6---------||
D|---------------------------------------------------||
A|--------------------------------------------------o||
E|---------------------------------------------------||


************************************

| (n)  Ghost note

************************************

            
            
Suggest correction
Creating personal tab
Creating personal tab
You can edit any tab online and save it as your Personal.

You can edit, replace or remove any tab part or add personal notes – all changes will be seen only by you.

Personal tabs can be accessed anytime from any device, even offline.
Learn more »
Give kudos to tab author, rate the tab!
1 2 3 4 5
comments
print report bad tab
guest
You may want to rate the tab now too:
select rating
Wanna post a correction for this tab? Suggest correction