Oops, an error
Loading. Please wait.

Castlevania 3 - Stream tab

version 1
version 1

Whole song

Interactive

31 views 1 this week
no commentswrite comment
1 2 3 4 5
3 more votes to show rating
add to favorites
×
Save as Personal and add changes to this tab that will be seen only by you. Learn more ›
×
You can save this tab as Personal to edit and correct it or add notes. All changes will be seen only by you. Learn more »
launch autoscroll
font size
0
reset
how to read this tab
guitar tuner
edit
Autoscroll
slow
fast
+/-
esc
set tempo
stop
#----------------------------------PLEASE NOTE---------------------------------#
#This file is the author's own work and represents their interpretation of the #
#song. You may only use this file for private study, scholarship, or research. #
#------------------------------------------------------------------------------##

Castlevania 3 - Stream (Stage 8 theme)

Gtr I (E A D G B E) - 'Squarewave'
Gtr II (E A D G B E) - 'Sawtooth'
Gtr III (E A D G B E) - 'Piano'

     Gtr I
e|------------------------------------|------------------------------------|
B|------------------------------------|------------------------------------|
G|------------------------------------|------------------------------------|
D|--10-10--9-10-12-(12)-------------9-|-10-10--9-10-12-(12)----------10-12-|
A|-------------------------------12---|------------------------------------|
E|------------------------------------|------------------------------------|


    Gtr III
e|------------------------------------|------------------------------------|
B|------------------------------------|------------------------------------|
G|--14-14-12-14-11-(11)-11-14-10-14---|-14-14-12-14-11-(11)-11-14-10-14----|
D|------------------------------------|------------------------------------|
A|------------------------------------|------------------------------------|
E|------------------------------------|------------------------------------|

e|---------------------------------|---------------------------------12----11-11-10-9----|
B|---------------------------------|-----------------------------------------------------|
G|--9--9-----9-11------------10----|--9--9----12-11-------------9------------------------|
D|-------10---------------12----12-|-------10---------------12---------------------------|
A|---------------------------------|-----------------------------------------------------|
E|---------------------------------|-----------------------------------------------------|
|
|                                                              |---3----|
e|---------------------------------|---------------------------12-11----10-----9----8----|
B|-13-13-12-13-10-(10)-10-13--9-13-|-13-13-12-13-10-(10)-10-13---------------------------|
G|---------------------------------|-----------------------------------------------------|
D|---------------------------------|-----------------------------------------------------|
A|---------------------------------|-----------------------------------------------------|
E|---------------------------------|-----------------------------------------------------|


   Gtrs I, III
e|----------10--------------------------------------|------------------------------------|
B|-13-----------------------------------------------|-10---------------------------------|
G|------------------9-12--------------9-12----------|-----11-----------------------------|
D|--------------10-----------------10---------------|----------12-12-12----12-12-12----9-|
A|--------------------------------------------------|-------------------------------12---|
E|--------------------------------------------------|------------------------------------|
|
 | Gtr II
e|----------17-(17)------------16----------------15-|-14---------------------------------|
B|-17-15-17-----------17-15-17----------17-15-17----|-----15------------------------15---|
G|--------------------------------------------------|----------14-------16----17---------|
D|--------------------------------------------------|------------------------------------|
A|--------------------------------------------------|------------------------------------|
E|--------------------------------------------------|------------------------------------|

e|--------------------------------------------------|---------------------------------------|
B|--------------------------------------------------|-10------------------------------------|
G|------------------9-12--------------9-12----------|-----11------------------10--------12--|
D|--------------10-----------------10---------------|-------------12-------10--------12-----|
A|--------------------------------------------------|--------------------8-------10---------|
E|--------------------------------------------------|---------------------------------------|

e|----------17-(17)------------16----------------15-|-14----------17-20----19-17------------|
B|-17-15-17-----------17-15-17----------17-15-17----|-----15-(15)-------18-------20---------|
G|--------------------------------------------------|---------------------------------------|
D|--------------------------------------------------|---------------------------------------|
A|--------------------------------------------------|---------------------------------------|
E|--------------------------------------------------|---------------------------------------|

e|-12--------10--------------------------------------|------------------------------------|
B|---------------------------------------------------|-10---------------------------------|
G|-------------------9-12--------------9-12----------|-----11-----------------------------|
D|---------------10-----------------10---------------|----------12-12-12----12-12-12----9-|
A|---------------------------------------------------|-------------------------------12---|
E|---------------------------------------------------|------------------------------------|
|
e|-----------17-(17)------------16----------------15-|-14---------------------------------|
B|-17--15-17-----------17-15-17----------17-15-17----|-----15------------------------15---|
G|---------------------------------------------------|----------14-------16----17---------|
D|---------------------------------------------------|------------------------------------|
A|---------------------------------------------------|------------------------------------|
E|---------------------------------------------------|------------------------------------|

e|-12--------10--------------------------------|----------------------------|
B|---------------------------------------------|----------------------------|
G|--------------------9-12----------9-12-------|--11------------------------|
D|---------------10--------------10------------|------12--------10---12-----|
A|---------------------------------------------|-----------12---------------|
E|---------------------------------------------|----------------------------|
|
e|-----------17-(17)-------17-20-19---17----17-|-(17)-----------------------|
B|-17--15-17---------15-17---------------20----|----------------------------|
G|---------------------------------------------|----------------------------|
D|---------------------------------------------|----------------15---17-----|
A|---------------------------------------------|----------------------------|
E|---------------------------------------------|----------------------------|

e|------------------------------------13-|-13--12-(12)-------------------|
B|-13-------13----------------13-(13)----|-------------12----------------|
G|----10-12---------------10-------------|-----------------9-------------|
D|-------------10------10----------------|---------------------9--(9)----|
A|----------------8-10-------------------|-----------------------------7-|
E|---------------------------------------|-------------------------------|
|
e|-17---------------------------------17-|-17--16-(16)-------------------|
B|------------------------18--20-(20)----|-------------17----------------|
G|---------------------------------------|----------------16-------------|
D|---------------------------------------|--------------------19-(19)-18-|
A|---------------------------------------|-------------------------------|
E|---------------------------------------|-------------------------------|

e|---------------------------------------|-----------------------------|
B|---------------------------------------|-----------------------------|
G|---------------------------------------|-----------------------------|
D|----------------------------------7--7-|--6--7-(7)-9--8----7-(7)-6---|
A|--------------------8----(8)-----------|-----------------------------|
E|--8------------------------------------|-----------------------------|
|
e|---------------------------------------|-------------22b24-----------|
B|---------------------------------------|-17--------------------------|
G|-----------16-(16)-17-16-17--19--17-19-|-----------------------------|
D|-19--17-19-----------------------------|-----------------------------|
A|---------------------------------------|-----------------------------|
E|---------------------------------------|-----------------------------|

e|------------------------------------13-|-13--12-(12)-------------------|
B|-13-------13----------------13-(13)----|-------------12----------------|
G|----10-12---------------10-------------|-----------------9-------------|
D|-------------10------10----------------|---------------------9--(9)----|
A|----------------8-10-------------------|-----------------------------7-|
E|---------------------------------------|-------------------------------|
|
e|-17---------------------------------17-|-17--16-(16)-------------------|
B|------------------------18--20-(20)----|-------------17----------------|
G|---------------------------------------|----------------16-------------|
D|---------------------------------------|--------------------19-(19)-18-|
A|---------------------------------------|-------------------------------|
E|---------------------------------------|-------------------------------|

e|---------------------------------------|------------------------12-----------||
B|---------------------------------------|---------------------12-------12----o||
G|---------------------------------------|-----------7--10---9--------------9--||
D|----------------------------------7--7-|--6--9-(9)---------------------------||
A|--------------------8----(8)-----------|------------------------------------o||
E|--8------------------------------------|-------------------------------------||
|
e|---------------------------------------|---------------------19-22b24-19-----||
B|---------------------------------------|-17----------(17)-17-------------17-o||
G|-----------16-(16)-17-16-17--19--17-19-|-------------------------------------||
D|-19--17-19-----------------------------|-------------------------------------||
A|---------------------------------------|------------------------------------o||
E|---------------------------------------|-------------------------------------||


************************************

| (n)  Ghost note
| b    Bend

************************************

            
            
Suggest correction
Creating personal tab
Creating personal tab
You can edit any tab online and save it as your Personal.

You can edit, replace or remove any tab part or add personal notes – all changes will be seen only by you.

Personal tabs can be accessed anytime from any device, even offline.
Learn more »
Give kudos to tab author, rate the tab!
1 2 3 4 5
comments
print report bad tab
guest
You may want to rate the tab now too:
select rating
Wanna post a correction for this tab? Suggest correction