Oops, an error
Loading. Please wait.

Christina 1 - Steinsgate tab

67 views 1 this week
no commentswrite comment
1 2 3 4 5
3 more votes to show rating
add to favorites
×
Save as Personal and add changes to this tab that will be seen only by you. Learn more ›
×
You can save this tab as Personal to edit and correct it or add notes. All changes will be seen only by you. Learn more »
launch autoscroll
font size
0
reset
how to read this tab
guitar tuner
edit
Autoscroll
slow
fast
+/-
esc
set tempo
stop
Author
*Capo on the 3rd fret

     E  E  Q.     E     Q    Q    Q       Q    H           Q    H           E  E  Q.     E   
e|--------0------3--|--2--------------|--0-------------|-------2--------|--------0------3--|
B|--1--3------------|------------3----|-------1--------|-------3--------|--1--3------------|
G|--------5---------|-------2---------|-------0--------|--2-------------|--------5---------|
D|------------------|-----------------|----------------|----------------|------------------|
A|--0---------------|--L--------------|--0-------------|----------------|--0---------------|
E|------------------|-----------------|----------------|----------------|------------------|


    Q    Q    Q       Q    H           E  E  E  E  E.  T  T     E  E  Q.     E     E  E  E  E  Q     
e|--5---------2----|--0-------------|------------------------|--------0------3--|--2----------------|
B|------------3----|-------1--------|------------------------|-----3------------|--------------3----|
G|-------2---------|-------0--------|-----2--0---------2s-4h-|--5-----5---------|-------------------|
D|-----------------|----------------|-----------4--0---------|------------------|--------0--2--4----|
A|--L--------------|--0-------------|--0---------------------|--0---------------|-----0-------------|
E|-----------------|----------------|------------------------|------------------|-------------------|


    Q    H           Q    H             E  E  Q.     E     E  E  E  E  E  E     Q    Q    Q     
e|--0-------------|-------2--------|----------0------3--|--5-----------3--2--|--0--------------|
B|-------1--------|-------3--------|--0g1--3------------|-----------3--------|------------0----|
G|-------0--------|----------------|----------5---------|-----2--0-----------|-------0---------|
D|----------------|----------------|--------------------|-----------4--0-----|-------2---------|
A|--0-------------|--0-------------|----0---------------|--------------------|--0--------------|
E|----------------|----------------|--------------------|--------------------|-----------------|


    E  E  E  E  E  E     Q    Q    E  E     Q    E  E  E  E     Q    Q    E  E     E  E  Q    Q     
e|--------------------|---------------0--|--0----------3--1--|--0---------L-----|------------------|
B|--1-----0-----3-----|--0---------L-----|----------3--------|-------1----L--0--|--0--1--0---------|
G|-----------2-----2--|-------0----------|-------2-----------|-------0----L-----|-------------0----|
D|-----0--------------|-------2----------|-------3-----------|-------2----L-----|--------2---------|
A|--------0--3--L-----|------------------|-------------------|------------------|--3--3------------|
E|--------------------|--1---------------|--1----------------|--0---------------|------------------|


                                                                         ^          
    E  E  H        E     E  E  E  E  E  E     E  E  E  E  E  E     E  E  Q    Q     
e|-----------------0--|--0--------0--3--5--|--0-----------L--8--|--7-----0----1----|
B|--0--L--3-----------|--------------------|-----------------8--|-----8------------|
G|--------2-----------|--------2-----------|-----------0--7--9--|--7-----0---------|
D|--------2-----------|--------3-----------|--------4-----------|-----9--0----2----|
A|--------------------|-----3--------------|-----2--------------|------------------|
E|--1-----------------|--1-----------------|--0-----------------|--0---------------|


    ^                                                                                             
    Q    Q    E  E     Q    Q    E  E     Q    Q    E  E     E  E  E  E  E  E     Q    Q.     E   
e|--3----1-------0--|--1---------L--5--|--5----3-------2--|--3-----------0--7--|--7----5---------|
B|--3------------1--|--3---------L-----|--5----3----------|--0-----------0-----|--6-----------5--|
G|--2----2----2-----|-------2----2-----|-------0----0-----|--------0-----0-----|--5----5------5--|
D|--0---------------|--0---------------|-------2----2-----|-----------4--------|--3--------------|
A|------------------|------------------|------------------|-----2--------------|-----------------|
E|------------------|------------------|--0---------------|--0-----------------|-----------------|


    ^                                                                                        
    Q    Q     Q       Q    E  E  Q       H.              E  E  Q.     E     Q    Q    Q     
e|--7----8----10----|--7---------------|---------------|------------------|-----------------|
B|--8---------------|--5---------------|---------------|------------------|-----------------|
G|--7----9----10----|--7---------------|--1------------|---------------0--|-----------------|
D|--7---------------|--7---------------|--0------------|-----0--2---------|--4---------0----|
A|------------------|-------7--7--7----|---------------|--3-----3---------|-------0---------|
E|------------------|------------------|--0------------|--5---------------|-----------------|


    Q    H           Q    Q    Q       E  E  Q.     E     Q    Q    Q       Q    H         
e|----------------|-----------------|------------------|-----------------|----------------|
B|----------------|-----------------|------------------|-----------------|----------------|
G|----------------|-----------------|---------------0--|--2--------------|----------------|
D|--2-------------|-------4---------|-----0--2---------|------------4----|--2-------------|
A|-------3--------|-------5----5----|--3-----3---------|------------5----|-------3--------|
E|--5-------------|--5--------------|--5---------------|-------5---------|--5-------------|


                        ^                                                        
    E  E  E  E  Q       E  E  Q.     E     E  E  E  E  Q       S  S E  H         
e|-----2--0----------|--------0------3--|--2----------------|-------------------|
B|-----------3-------|--1--3---------0--|--3-----------3----|--5p-3-5--L--------|
G|-----2--0-----2----|--0-----5---------|-------------------|----------0--------|
D|-----------4--0----|--2---------------|--------0--2--4----|----------2--------|
A|--0----------------|--0---------------|-----0-------------|--0----------------|
E|-------------------|------------------|-------------------|-------------------|


             |--3--|                                 
    Q    E  E  E  E  E     E  E  Q.     E     Q    E  E  E  E     E  E  E  E  E  E   
e|----------------------|------------------|-------------------|--------------------|
B|----------------------|------------------|-------------------|--------------------|
G|-------2--------------|---------------0--|--2----------0-----|-----------0--------|
D|-------0--------------|-----0--2---------|--0-------0-----4--|--2--------------2--|
A|--0-------------0--2--|--3-----3------3--|-------0-----------|-----3--0-----3-----|
E|----------2--3--------|--5---------------|-------------------|--5--------3--------|


    E  E  E  E  E  E     E  E  E  E  E  E     E  E  E  E  E  E     E  E  E  E  E  E   
e|--------------------|--0--------0--------|--0--------0--------|--2--------2--------|
B|-----------0--1--3--|--1--1-----1--1-----|--1--1-----1--1-----|--3--3-----3--3-----|
G|-----0--2--0--2--4--|-----2--2-----2--2--|-----2--2-----2--2--|-----4--4-----4--4--|
D|--4--2--4-----------|--3-----3--------3--|--------3--------3--|--5-----5--------5--|
A|--5-----------------|--------------------|--------------------|--------------------|
E|--------------------|--------------------|--------------------|--------------------|


    E  E  E  E  E  E     E  E  E  E  E  E     E  E  E  E  E  E      E  E   E  E  E   E   
e|--2--------2--------|--5--------5--------|--5--------5--------|---7---------7---------|
B|--3--3-----3--3-----|--6--6-----6--6-----|--6--6-----6--6-----|---8--8------8--8------|
G|-----4--4-----4--4--|-----7--7-----7--7--|-----7--7-----7--7--|------9---9-----9---9--|
D|--------5--------5--|--8-----8--------8--|--------8--------8--|--10-----10--------10--|
A|--------------------|--------------------|--------------------|-----------------------|
E|--------------------|--------------------|--------------------|-----------------------|


                              ^                              
    E  E   E  E  E   E        H.              H.             
e|--7---------7--8--10--|--<>12------------|--L------------||
B|--8--8------8---------|--<>12------------|--L------------||
G|-----9---9-----9---7--|--<>12------------|--L------------||
D|--------10------------|------------------|---------------||
A|----------------------|------------------|---------------||
E|----------------------|--<>12------------|--L------------||

            
            
Suggest correction
Creating personal tab
Creating personal tab
You can edit any tab online and save it as your Personal.

You can edit, replace or remove any tab part or add personal notes – all changes will be seen only by you.

Personal tabs can be accessed anytime from any device, even offline.
Learn more »
Give kudos to tab author, rate the tab!
1 2 3 4 5
comments
print report bad tab
guest
You may want to rate the tab now too:
select rating
Wanna post a correction for this tab? Suggest correction