Oops, an error
Loading. Please wait.

Chrono Cross - Prisoners Of Fate tab

1,643 views 3 this week
1 commentread comment
1 2 3 4 5
2 more votes to show rating
add to favorites
×
Save as Personal and add changes to this tab that will be seen only by you. Learn more ›
×
You can save this tab as Personal to edit and correct it or add notes. All changes will be seen only by you. Learn more »
launch autoscroll
font size
0
reset
how to read this tab
guitar tuner
edit
Autoscroll
slow
fast
+/-
esc
set tempo
stop
Difficulty
I noticed no one else had a regular tab for this, so here it is.  It's really sad and 
great with
low distortion, echo, chorus, and plenty of reverb.
Enjoy!

E|-----------------------------------------------------------------------------|
B|--------------------------------(4--8—-6)------------------------------------|
G|7-----3--------7-------------------------------------------------------------|
D|----------------------8-----5------------------------------------------------|
A|-----------------------------------------------------------------------------|
E|-----------------------------------------------------------------------------|

E|-----------------------------------------------------------------------------|
B|-------8--6-------9--9--8-6--------------------------------------------------|
G|5--7-8------5--7-------------7-8--0-5--3-------------------------------------|
D|-----------------------------------------------------------------------------|
A|-----------------------------------------------------------------------------|


E|---------------15------------16-16--15---------------------15----------------|
B|--------15-16-----18--15-16-------------18--16--18--15--16-------------------|
G|15--17-----------------------------------------------------------------------|
D|-----------------------------------------------------------------------------|
A|-----------------------------------------------------------------------------|


E|-15-----------------------15---------16-15-----------------------------------|
B|------18--15------15--18------16-15---------18--16--15-16----16-16--18--15---|
G|----------------------------------------------------------17-----------------|
D|-----------------------------------------------------------------------------|
A|-----------------------------------------------------------------------------|
E|-----------------------------------------------------------------------------|

E|-----------------------------------------------------------------------------|
B|-----------------------------------------------------------------------------|
G|17~~~~~~~15~~~~~~~17~~~~~~~~-------------------------------------------------|
D|-----------------------------------------------------------------------------|
A|----------------------I don't know the acoustic part here -------------------|
E|-----------------------------------------------------------------------------|
Suggest correction
Creating personal tab
Creating personal tab
You can edit any tab online and save it as your Personal.

You can edit, replace or remove any tab part or add personal notes – all changes will be seen only by you.

Personal tabs can be accessed anytime from any device, even offline.
Learn more »
Give kudos to tab author, rate the tab!
1 2 3 4 5
comments
print report bad tab
1 comment total.
0 reply
Danny Wolf 10 May 02, 2010 02:19 AM

It's great! But, here's a couple minor fixes:

E|---------------15------------16-16--15---------------------15----------------|
B|--------15-16-----18-----15-------------18--16--18--15--16-------------------|
G|15--17----------------17-----------------------------------------------------|
D|-----------------------------------------------------------------------------|
A|-----------------------------------------------------------------------------|

|First Time
E|--------------|-----------15---------16-15-----------------------------------|
B|-----18--15---|---16--18------16-15---------18--16--15-16----16-16--18--15---|
G|--------------|*------------------------------------------17----------------*|
D|--------------|--------------------------------------------------------------|
A|--------------|*------------------------------------------------------------*|
E|--------------|--------------------------------------------------------------|


I may put this into Guitar Pro one of these days...

guest
Wanna post a correction for this tab? Suggest correction