Oops, an error
Loading. Please wait.

Chrono Cross - Radical Dreamers tab

version 1
version 1

Whole song

Interactive

32,902 views 69 this week
2 commentsread comments
1 2 3 4 5
x 9
add to favorites
×
Save as Personal and add changes to this tab that will be seen only by you. Learn more ›
×
You can save this tab as Personal to edit and correct it or add notes. All changes will be seen only by you. Learn more »
launch autoscroll
font size
0
reset
how to read this tab
guitar tuner
edit
Autoscroll
slow
fast
+/-
esc
set tempo
stop
Author
Artist: Misc Computer Games
Song: Chrono Cross - Radical Dreamers

[MAIN RIFF]
(repeated throughout most of the song)
e|--------------------------------|-----2----------------2---------|---|
B|-----------0--------------0-----|---------3--------2-------2-----|---|
G|-------2-------2------2-------2-|-------------4--------------2---|---|
D|-----0-------0------2-------2---|---4-------4--------4---------4-|---|
A|-----------------0------0-------|2------2--------0-------0-------|---|
E|--3------3----------------------|--------------------------------|---|

(For much of the song, play this main riff twice, except for the second playthrough,
replace that which is bordered by vertical lines with the below segments, on every
other play through until much later in the song.
The section encapsulated by vertical lines is replaced with
Different Endings (In order)
Each set is a different ending)

e|----------0--------0----|
B|--------0---0------0----|
G|------2-------2----1----|  #1
D|----2-----------2--2----|
A|------------------------|
E|--0---------------------|

e|------------------------|
B|-----------5--------4---|
G|--------4-----4---------|
D|-----4-----------4------|
A|--2-----------------2---|  #2a
E|------------------------|

e|---------------------------------|
B|-----------0--------------2------|
G|-------0-------0------4-------3--|  #3a
D|-----2-------2------4-------4----|
A|---------------------------------|
E|--0------0-------2------2--------|

e|------2---------------2---------|
B|----------2---------------2-----|
G|----4-------4P3-----3-------3---|   #4a
D|---4--------------4-----------4-|
A|--------------------------------|
E|-2------2-------2-------2-------|

e|---------------------------------------------------|
B|---------0-------2-------2-------------------------|
G|-----0-------0-------4-------3---------------------|
D|---2-------2-------4-------4-----------------------|#3b
A|---------------------------------------------------|
E|-0-----0-------2-------2---------------------------|

e|----------------------2----------------------------|
B|----------2-------2-------2------------------------|
G|------4-------4P3-----------3----------------------|#5
D|----4-------4-------4---------4--------------------|
A|---------------------------------------------------|
E|-2------2-------2-------2--------------------------|

(Instead of playing the Main ending (ie. the one played throughout the song and is
replaced by the above endings on every other play through), play this ending, which
is the Second Main Ending)

e|-----------------------------------------|
B|------------------3--------2-------------|
G|------2---4---2-------4--------2---------|
D|----4-------4-------4--------4-----------|   M2
A|----------------2--------0---------------|
E|-2------2--------------------------------|

(Not totally sure about this one, but it sounds good)
e|---------------------------------|
B|------3---5---3-------2----------|
G|----2-------2-----4-------4------|
D|--------------------4---4---4----|   M2 #1
A|-2------2-------2--------------2-|
E|---------------------------------|

Play M2 again, then play this...

e|------------------------------5--|
B|-----------0----------------7----|
G|------2------------2/7----7------|
D|----0------------2--/7--7--------|   Doesn't really deserve a number
A|--------------0------------------|
E|-3------3------------------------|

Repeat M1 and then #1, then this...

e|-------------------------------------|
B|-------------------------------------|
G|-------------------------------------|
D|-------------------------------------|  Same as above
A|-------------------------------------|
E|-0-2-3-------------------------------|

  Repeat M1, as usual, and play this...
e|---------------------|
B|-------5-------5-4---|
G|-----4-------4-------|   #2b
D|---4-------4---------|
A|-2-------2-------2---|
E|---------------------|


e|----------------------------------2-----|
B|------------0---------------------2-----|
G|------0---------0------2----------------|
D|----2---------2------------4----------3-|
A|-------------------------4----------4---|   #3c
E|-0-------0---------2----------2---------|

e|----------2---------------2--------|
B|--------2---2-----------2---2------|
G|------4-------4-------3-------3----|
D|----4-----------4---4-----------4--|   #4b
A|-----------------------------------|
E|--2---------------2----------------|


Play M2, and on second play through, this is played...
e|----------0------------------0-------|
B|------3-------3----------2-------2---|
G|----4---4---4---2------2---2---2---2-|
D|-------------------------------------|
A|-------------------------------------|    M2 #2a
E|-2-----------------0-----------------|

(Play Second major riff and first ending after)

(play this, new stink chord introduced, possibly hardest part of the song, take your 
learning it)

e|-------2---------------2----------------2---------------------------------|
B|-----------3---------------3----------3-----3-----------3---2-------------|
G|-----4-------4-------0---------0----2---------2-------2-------2-----------|
D|---4-----------4---4---------4----0-------0-----0---2-----------2---------|
A|-2-------2----------------------------------------0-------0---------------|
E|-----------------3-------3------------------------------------------------|

e|-------2---------------2------------------0-------------------------------|
B|-----------3-------------3------------0-----------0-----------------------|
G|-----4-------4-------0-----0--------7---------7-----6---------------------|
D|---4-----------4---4---------4----7---------7---------7-------------------|
A|-2-------2----------------------0-------0-------0-------------------------|
E|-----------------3-------3------------------------------------------------|
(next part is basically the same as the one 2 above, just with 2 notes different)

e|-------2---------------2---------------2------------------------------------|
B|-----------3---------------3---------3-----3-----------3---2----------------|
G|-----4-------4-------0-------0-----2---------2-------2-------2--------------|
D|---4-----------4---4-----------4-0-------0-----0---2-----------2------------|
A|-2-------2---------------------------------------0-------0------------------|
E|-----------------3-------3--------------------------------------------------|

                                                                  (uncertain about here)
e|ditto ditto ditto ditto ditto ditto ditto ditto-----------0-------------0---------|
B|ditto ditto ditto ditto ditto ditto ditto ditto-------0-----------0-------0-------|
G|ditto ditto ditto ditto ditto ditto ditto ditto-----7---------7-----6-------6-----|
D|ditto ditto ditto ditto ditto ditto ditto ditto---7---------7---------7-------7---|
A|ditto ditto ditto ditto ditto ditto ditto ditto-0-------0-------0-----------------|
E|ditto ditto ditto ditto ditto ditto ditto ditto-----------------------------------|

repeat the first couple of stink parts and insert this where it is appropriate

e|---------0-------------0-----------------------|
B|-------0---0-------0-------0-------------------|
G|-----7---------7---------------6---------------|
D|---7---------7-------7-------7-----------------|
A|-0---------------0-------0---------------------|
E|-----------------------------------------------|

Repeat first stink part and insert this at the end of the second play through
(-0:41)
e|-----------0------------0----------------------|
B|-------0------------0-------0------------------|
G|-----7---------7------6-------6----------------|
D|---7---------7------------------7--------------|
A|-0-------0-------0--------0--------------------|
E|-----------------------------------------------|

Finally, repeat the intro to the song twice, with this ending added on the second time

e|----------0------------------0-------|
B|------3-------3----------2-------2---|
G|----4---4---4---2------2---2---2---2-|
D|-------------------------------------|
A|-------------------------------------|  M2 #2a
E|-2-----------------0-----------------|

LAST PART, played slower...

e|----------------------------------0--------------------|
B|-------------0-----------------0-----0-----------4h5p4-|
G|-------2-----------2--------2-----------2--------4-----|
D|-----0----------0--------2-----------------2-----4-----|
A|----------------------0--------------------------2-----|
E|--3-------3--------------------------------------------|

************************************

| /  Slide up
| h  Hammer-on
| p  Pull-off

************************************

            
            
Suggest correction
Creating personal tab
Creating personal tab
You can edit any tab online and save it as your Personal.

You can edit, replace or remove any tab part or add personal notes – all changes will be seen only by you.

Personal tabs can be accessed anytime from any device, even offline.
Learn more »
comments
print report bad tab
2 comments total.
0 reply
EternalDreamer 10 Dec 18, 2006 10:49 AM

woooow thank's for this great song ^^

i like it and i love to play it in my guitar

0 reply
DaveMN 241 Dec 28, 2008 04:22 PM

I love it! Awesome job

guest
You may want to rate the tab now too:
select rating
Wanna post a correction for this tab? Suggest correction