Oops, an error
Loading. Please wait.

Chrono Trigger - Maguss Theme Bass Tab

291 views 1 this week
no commentswrite comment
1 2 3 4 5
3 more votes to show rating
add to favorites
launch autoscroll
font size
0
reset
guitar tuner
Autoscroll
slow
fast
+/-
esc
set tempo
stop
Help us to improve Ultimate-Guitar.com Take our survey!
×
Chrono Trigger - Magus's Theme

Tabbed by: XxThreeCheersxX
E-mail: phantomhiveghost@gmail.com

Tuning: Standard

Part I (intro)
G|---------------------|
D|---------------------|
A|---------------------| x 4
E|-0~---1~---0~---3~---|

Part II
G|---------------------------------------------------------|
D|---------------------------------------------------------|
A|---------------------------------------------------2-1-0-| x 3
E|-0~--0-0-1-1-1-0~--0-0-3-3-3-0~--0-0-1-1-1-0~--0-0-------|

G|-----------------------------------------------------4-3---|
D|---------------------------------------------------2-------|
A|-----------------------------------------------------------|
E|-0~--0-0-1-1-1-0~--0-0-3-3-3-0~--0-0-1-1-1-0~--0-0---------|

Part III
G|-2-2-2-2-2-2-0-0-0-0-0-0-------------0-0-0-0-0-0---|
D|-------------------------3-3-3-3-3-3---------------|
A|---------------------------------------------------|
E|---------------------------------------------------|

G|-2-2-2-2-2-2-0-0-0-0-0-0-------------------------|
D|-------------------------3-3-3-3-3-3-2-2-2-2-0---|
A|-----------------------------------------------3-|
E|-------------------------------------------------|

Part IV
G|-------------------------------|
D|---------------------------1-0-|
A|-------------3-----------------| x 4
E|-5--3-5--5-3----5-5-55-5-5-----|

Part V
G|-----------------------------|
D|-2--0-------------2~---------|
A|-------4--3~---2-------2-----|
E|--------------------------0~-|

Then repeat as much as you want.
That’s it, it's a very fun and easy song to play.
If you have corrections comment or email me.
Happy playing!
Suggest correction
Give kudos to tab author, rate the tab!
1 2 3 4 5
comments
print report bad tab
guest
You may want to rate the tab now too:
select rating
Wanna post a correction for this tab? Suggest correction