Oops, an error
Loading. Please wait.

Club Penguin - Ice Fishing Song tab

1,654 views 33 this week
1 commentread comment
1 2 3 4 5
x 3
add to favorites
×
Save as Personal and add changes to this tab that will be seen only by you. Learn more ›
×
You can save this tab as Personal to edit and correct it or add notes. All changes will be seen only by you. Learn more »
launch autoscroll
font size
0
reset
how to read this tab
guitar tuner
edit
Autoscroll
slow
fast
+/-
esc
set tempo
stop
Author
Difficulty
intermediate
About this tab version
This song now contains the two parts of the song. And provided the outro chords too. Was this info helpful? Yes No
-------------------------------------------------------------------------------
                    Club Penguin - Ice Fishing Game Song
-------------------------------------------------------------------------------
Tabbed by:
Guilherme Dantas
E-mail: guidanoli@hotmail.com

Tuning:  E A D G B e (Standard Tuning) - nylon guitar recommended

83 bpm

   G            Bm                 Am    D    Am   G                 D
e|-----------------|------------|----------|---------------|------------------|
B|-----------------|------------|----------|--5--8-7h8---7-|--8--10--10-------|
G|--------------4--|-4--4--5--7-|-X-7--9-7-|---------------|-------------7--7-|
D|-4-2-0-4-5-7-----|------------|----------|---------------|------------------|
A|-----------------|------------|----------|---------------|------------------|
E|-----------------|------------|----------|---------------|------------------|

        C                      F                           Em  Bm    E
e|--------------------|------------|---------------|--8--7-7-|-7--8--10~------|
B|------8-------------|----5---6-6-|-6-66-5h6---5--|---------|----------------|
G|-7--7---5--5--4--5~-|--7---7-----|----------7----|---------|----------------|
D|--------------------|------------|---------------|---------|----------------|
A|--------------------|------------|---------------|---------|----------------|
E|--------------------|------------|---------------|---------|----------------|

   Am                        D                              G
e|----------|--------------|-0-3p2p0--------|-0-3p2p0-------------------------|
B|-8--8-7h8-|-7-8--10--10--|---------3p1p0--|---------3-1-0-------------------|
G|----------|--------------|----------------|---------------2-0---------------|
D|----------|--------------|----------------|---------------------------------|
A|----------|--------------|-repeat 2 times-|---------------------------------|
E|----------|--------------|----------------|---------------------------------|

    Em              Am                                 G7M
e|---------------|--------------------|-----5--8p7---7-8-|-8/10~-------|
B|--8--8-8p5---0-|--------------------|-5h8--------8-----|-------8--8~-|
G|-----------7---|----0-------5p4h5h7-|------------------|-------------|
D|---------------|-7\-------5---------|------------------|-------------|
A|---------------|------6h7-----------|------------------|-------------|
E|---------------|--------------------|------------------|-------------|
       Gm6                        D            G7M Gm6 G7M Gm6 C7 D7
e|--10-8------|---------------------------|
B|-------7-7~-|---------------------------|
G|------------|---------------------------|
D|------------|-----5-8p7p6p5--8--8-7~----|
A|------------|-6h7-----------------------|
E|------------|---------------------------|

************************************

| h   hammer-on
| p   pull-off
| ~   vibrato
| x   Mute note
| \   Slide down
| /   Slide up

************************************

            
            
Suggest correction
Creating personal tab
Creating personal tab
You can edit any tab online and save it as your Personal.

You can edit, replace or remove any tab part or add personal notes – all changes will be seen only by you.

Personal tabs can be accessed anytime from any device, even offline.
Learn more »
Give kudos to tab author, rate the tab!
1 2 3 4 5
comments
print report bad tab
1 comment total.
0 reply
benjamin.cannabrava 10 Mar 28, 2017 08:57 AM

In my version for playing the song, I'd say the first 4 chords would be G, A#, Am and D7.

guest
You may want to rate the tab now too:
select rating
Wanna post a correction for this tab? Suggest correction