Oops, an error
Loading. Please wait.

Crystalis - Cave Theme Bass Tab

version 1
version 1

Whole song

  • There is no plain bass tab for this song.

Interactive

1 view 1 this week
no commentswrite comment
1 2 3 4 5
3 more votes to show rating
add to favorites
launch autoscroll
font size
0
reset
guitar tuner
Autoscroll
slow
fast
+/-
esc
set tempo
stop
Help us to improve Ultimate-Guitar.com Take our survey!
×
Author
Difficulty
About this tab version
There is no plain bass tab for this song. Was this info helpful? Yes No
Crystalis (NES) - Cave theme...on bass!!!
Tempo: 135
Gtr I (E A D G) - 'Untitled'

 [Whole Song]
     Gtr I
     W          W          W          W
G||-----------|----------|----------|----------|
D||o----------|----------|----------|----------|
A||o----------|----------|----------|----------|
E||-----------|----------|----------|----------|

   W          W          W          W
G|----------|----------|----------|------|
D|----------|----------|----------|------|
A|----------|----------|----------|------|
E|----------|----------|----------|------|

   W          W          W          W
G|----------|----------|----------|----------|
D|----------|----------|----------|----------|
A|----------|----------|----------|----------|
E|----------|----------|----------|----------|

   W          W          W          H    E E E E
G|----------|----------|----------|--------------|
D|----------|----------|----------|----------6---|
A|----------|----------|----------|--------------|
E|----------|----------|----------|------7-------|

   E  E  E E E  E  E E   E  E  E E E  E  E E
G|------10--------10---|------10--------10---|
D|---10--------10------|---10--------10------|
A|-8---------8---------|-8---------8---------|
E|---------------------|---------------------|

    E  E  E E  E  E  E E    E  E  E E  E  E  E E
G|-----------------------|-----------------------|
D|-------12---------12---|-------12---------12---|
A|----12---------12------|----12---------12------|
E|-10---------10---------|-10---------10---------|

   Q.   E Q  Q    H.      Q
G|--------------|------------||
D|-6----6-6--6--|-7---------o||
A|--------------|-----------o||
E|-4----4-4--4--|-5----------||

************************************
Duration Legend

   W    whole
   H    half
   Q    quarter
   E    8th
   S    16th
   T    32nd

************************************
Suggest correction
Give kudos to tab author, rate the tab!
1 2 3 4 5
comments
print report bad tab
guest
You may want to rate the tab now too:
select rating
Wanna post a correction for this tab? Suggest correction