Oops, an error
Loading. Please wait.

Crystalis - Leaf Town Bass Tab

version 1
version 1

Whole song

  • There is no plain bass tab for this song.

Interactive

4 views 1 this week
no commentswrite comment
1 2 3 4 5
3 more votes to show rating
add to favorites
launch autoscroll
font size
0
reset
guitar tuner
Autoscroll
slow
fast
+/-
esc
set tempo
stop
Help us to improve Ultimate-Guitar.com Take our survey!
×
Author
Difficulty
About this tab version
There is no plain bass tab for this song. Was this info helpful? Yes No
Crystalis (NES) - Leaf Town theme...on bass!!!
Tempo: 130
Bass (E A D G)

[Whole Song]
   W             Q.    E  Q.    E   Q.   E Q   Q     Q.    E  Q.    E
G|----------||--------------------|---------------|-------------------|
D|----------||o-10----10-------10-|--------7--10--|-------------------|
A|----------||o----------10-------|-8----8--------|-------------------|
E|----------||--------------------|---------------|-10----10-10----10-|

    Q.    E  Q.    E    Q.    E  Q.    E   Q.   E Q.   E    Q.    E  Q.    E
G|-------------------|-------------------|---------------|-------------------|
D|-------------------|-10----10-------10-|---------------|-------------------|
A|-10----10-10----10-|----------10-------|-8----8-8----8-|-10----10-10----10-|
E|-------------------|-------------------|---------------|-------------------|

    Q.    E  Q   Q     Q.    E  Q   E  E    Q.    E  Q   E  E   Q.   E Q  E E
G|------------------|--------------------|--------------------|---------------|
D|-10----10-10--10--|--------------------|--------------------|---------------|
A|------------------|-11----11-----11----|-10----10-----10----|-8----8----8---|
E|------------------|----------11-----11-|----------10-----10-|--------8----8-|

    Q.    E  Q  E  E    Q.    E  Q  E  E    Q.    E  Q   E  E   Q.   E Q  E E
G|-------------------|-------------------|--------------------|---------------|
D|-------------------|--------------8----|--------------------|---------------|
A|--------------8-10-|-11----11-11----11-|-10----10-10--11-10-|-8----8-8--8-8-|
E|-11----11-11-------|-------------------|--------------------|---------------|

    Q.    E  Q   Q     Q.    E  Q   E  E   Q.   E Q  E  E    Q.    E  Q  E  E
G|------------------|--------------------|----------------|-------------------|
D|------------------|-10----10-10-----10-|-----------7-10-|--------------9----|
A|-10----10-10--10--|--------------10----|-8----8-8-------|-10----10-10----10-|
E|------------------|--------------------|----------------|-------------------|

    Q.    E  Q   E  E    Q.    E  Q   E  E
G|--------------------|--------------------|
D|-10----10-10-----10-|-10----10-10-----10-|
A|--------------10----|--------------10----|
E|--------------------|--------------------|

   Q.   E Q  E  E    Q.    E  Q  E  E    Q.    E  Q  Q
G|----------------|-------------------|------------------||
D|-----------7-10-|--------------9----|-10----10-10-----o||
A|-8----8-8-------|-10----10-10----10-|-----------------o||
E|----------------|-------------------|------------------||


************************************
Duration Legend

   W    whole
   H    half
   Q    quarter
   E    8th
   S    16th
   T    32nd

************************************
Suggest correction
Give kudos to tab author, rate the tab!
1 2 3 4 5
comments
print report bad tab
guest
You may want to rate the tab now too:
select rating
Wanna post a correction for this tab? Suggest correction