Oops, an error
Loading. Please wait.

Crystalis - Leaf Town Tab

version 1
version 1

Whole song

  • There is no plain tab of this song.

Interactive

10 views 3 this week
no commentswrite comment
1 2 3 4 5
3 more votes to show rating
add to favorites
launch autoscroll
font size
0
reset
how to read this tab
guitar tuner
Autoscroll
slow
fast
+/-
esc
set tempo
stop
Help us to improve Ultimate-Guitar.com Take our survey!
×
Author
Difficulty
intermediate
About this tab version
There is no plain tab of this song. Was this info helpful? Yes No
Crystalis (NES) - Leaf Town theme
Tempo: 130
Gtr I (E A D G B E) - 'Sawtooth'
Gtr II (E A D G B E) - 'Squarewave'

[Whole Song]
   Gtr I
   H    Q  E  E      E  E  E  E  Q     E  E
e|--------------||--------------------------|
B|--------------||o-------------13----12-10-|
G|---------9-10-||--12-----9-12-------------|
D|--------------||-----10-------------------|
A|--------------||o-------------------------|
E|--------------||--------------------------|
 |
 | Gtr II
 | W                 E  E  E  E  E  E  E  E
e|--------------||--------------15----------|
B|--------------||o-------17-------17-------|
G|--------------||-----17----17-------17----|
D|--------------||--17-------------------17-|
A|--------------||o-------------------------|
E|--------------||--------------------------|

    E  E  +H            E  E    Q.        E  Q     Q
e|---------------------------|--------------------------|
B|---------------------------|--------------------10----|
G|-12-10-(10)--------------9-|-10--------10-11----------|
D|---------------------12----|--------------------------|
A|---------------------------|--------------------------|
E|---------------------------|--------------------------|
 |
 |  E  E   E   E  E  E  E  E    E   E  E  E  E  E  E  E
e|---------------13----------|--------------14----------|
B|--------13--------13-------|--------13-------15-------|
G|----14------14-------14----|-----14----14-------14----|
D|-15---------------------15-|-15--------------------16-|
A|---------------------------|--------------------------|
E|---------------------------|--------------------------|

    H           Q     E  E    Q.        E  Q     E  E
e|-------------------------|--------------12----10----|
B|-------------------------|-----------------------13-|
G|-12-----------9-----9-10-|-12--------12-------------|
D|-------------------------|--------------------------|
A|-------------------------|--------------------------|
E|-------------------------|--------------------------|
 |
 |  E  E  E  E  E  E  E  E    E   E  E  E  E  E  E  E
e|-------------15----------|--------------15----------|
B|-------17-------17-------|--------17-------17-------|
G|----17----17-------17----|-----17----17-------17----|
D|-17-------------------17-|-17--------------------17-|
A|-------------------------|--------------------------|
E|-------------------------|--------------------------|

    E  S  S  E  E  Q     E  E    Q.        E  Q     Q
e|----------------13-------10-|-12--------12-------10-----|
B|-12-13-12----10-------13----|--------------12-----------|
G|----------13----------------|---------------------------|
D|----------------------------|---------------------------|
A|----------------------------|---------------------------|
E|----------------------------|---------------------------|
 |
 |  E  E     E  E  E  E  E  E    E   E  E  E  E  E  E  E
e|----------------13----------|---------------------------|
B|----------13-------13-------|--------17----------18-----|
G|----14-------14-------14----|-----17----17----16----16--|
D|-15----------------------15-|-17-----------17-----------|
A|----------------------------|---------------------------|
E|----------------------------|---------------------------|

    W                       Q.        E  Q     E  E
e|-----------------------|-----------10-11----10----|
B|-13--------------------|-13--------------------13-|
G|-----------------------|--------------------------|
D|-----------------------|--------------------------|
A|-----------------------|--------------------------|
E|-----------------------|--------------------------|
 |
 |  E  E  E  E  Q   E  E    E   E  E  E  E  E  E  E
e|-----------------------|-----------16----------16-|
B|-----------------------|--------16----------16----|
G|-17--------------------|-----17----------17-------|
D|----17-14-17--------14-|-18-----------18----------|
A|-------------15--17----|--------------------------|
E|-----------------------|--------------------------|

    Q.        E  H             Q.        E  Q     E  E
e|--------------------------|--------------------------|
B|-11-----------11----------|-----------11-13----11----|
G|-----------12-------------|-13--------------------13-|
D|--------------------------|--------------------------|
A|--------------------------|--------------------------|
E|--------------------------|--------------------------|
 |
 |  E   E  E  E  E  E  E  E    E   E  E  E  E  E  E  E
e|-----------15----------15-|-----------13----------13-|
B|--------15----------15----|--------13----------13----|
G|-----15----------15-------|-----13----------13-------|
D|-17-----------17----------|-15-----------15----------|
A|--------------------------|--------------------------|
E|--------------------------|--------------------------|

    E  E  E  E  H             Q.        E  H
e|-------------------------|-----------10-11----------|
B|-------------11----------|-13-----------------------|
G|-12-11-12-13-------------|--------------------------|
D|-------------------------|--------------------------|
A|-------------------------|--------------------------|
E|-------------------------|--------------------------|
 |
 |  E  E  E  E  E  E  E  E    E   E  E  E  E  E  E  E
e|----------11----------11-|-----------16----------16-|
B|-------11----------11----|--------16----------16----|
G|----12----------12-------|-----17----------17-------|
D|-13----------13----------|-18-----------18----------|
A|-------------------------|--------------------------|
E|-------------------------|--------------------------|

    Q.        E  H             E  Q     Q     E  E  E
e|-----------10-11----------|-------------------------|
B|-11-----------------------|-10-10----10----10-12-13-|
G|--------------------------|-------------------------|
D|--------------------------|-------------------------|
A|--------------------------|-------------------------|
E|--------------------------|-------------------------|
 |
 |  E   E  E  E  E  E  E  E    E  E  E  E  E  E  E  E
e|-----------15----------15-|----------13----------13-|
B|--------15----------15----|-------13----------13----|
G|-----15----------15-------|----14----------14-------|
D|-17-----------17----------|-15----------15----------|
A|--------------------------|-------------------------|
E|--------------------------|-------------------------|

    H.                 Q       H           +E   E  E  E
e|-10-----------------------|-12----------(12)-12-13-12-|
B|--------------------------|---------------------------|
G|--------------------12----|---------------------------|
D|--------------------------|---------------------------|
A|--------------------------|---------------------------|
E|--------------------------|---------------------------|
|
 |  E   E  E  E  E  E  E  E    E  E  E  E   E   E  E  E
e|-----------15----15-------|--------------15-----------|
B|--------15----------18-15-|-------17---------17-------|
G|-----16-------------------|----17----17---------17----|
D|-17-----------17----------|-17---------------------17-|
A|--------------------------|---------------------------|
E|--------------------------|---------------------------|

    H           Q     Q       H           Q     Q
e|-13----------------------|-------------10----11----|
B|-------------10----10----|-12----------------------|
G|-------------------------|-------------------------|
D|-------------------------|-------------------------|
A|-------------------------|-------------------------|
E|-------------------------|-------------------------|
 |
 |  E  E  E  E  E  E  E  E    E  E  E  E  E  E  E  E
e|-------------13----------|-------------15----------|
B|-------13-------13-------|-------15-------15-------|
G|----14----14-------14----|----16----16-------16----|
D|-15-------------------15-|-17-------------------17-|
A|-------------------------|-------------------------|
E|-------------------------|-------------------------|

    H.                 Q       H           +E   E  E  E
e|-12-----------------------|-12----------(12)-12-13-12-|
B|--------------------------|---------------------------|
G|--------------------12----|---------------------------|
D|--------------------------|---------------------------|
A|--------------------------|---------------------------|
E|--------------------------|---------------------------|
|
 |  E   E  E  E  E  E  E  E    E  E  E  E   E   E  E  E
e|--------------15----------|--------------15-----------|
B|--------17-------17-------|-------17---------17-------|
G|-----17----17-------17----|----17----17---------17----|
D|-17--------------------17-|-17---------------------17-|
A|--------------------------|---------------------------|
E|--------------------------|---------------------------|

    H           +E   E  E  E    H           Q     Q
e|-17----------(17)-15-------|-------------------10----|
B|---------------------18-17-|-12----------13----------|
G|---------------------------|-------------------------|
D|---------------------------|-------------------------|
A|---------------------------|-------------------------|
E|---------------------------|-------------------------|
 |
 |  E  E  E  E   E   E  E  E    E  E  E  E  E  E  E  E
e|--------------13-----------|-------------15----------|
B|-------13---------13-------|-------15-------15-------|
G|----14----14---------14----|----16----16-------16----|
D|-15---------------------15-|-17-------------------17-|
A|---------------------------|-------------------------|
E|---------------------------|-------------------------|

    H.              E  E
e|---------------------------||
B|-13-----------------------o||
G|------------------9-10-----||
D|---------------------------||
A|--------------------------o||
E|---------------------------||
 |
 |  E   E  E  E  Q  Q
e|---------------------------||
B|--------------------------o||
G|---------------------------||
D|-----14-17-14--------------||
A|-15-----------15----------o||
E|---------------------------||
Duration Legend
---------------
W - whole; H - half; Q - quarter; E - 8th; S - 16th; T - 32nd; X - 64th; a - acciaccatura
+ - note tied to previous; . - note dotted; .. - note double dotted
Uncapitalized letters represent notes that are staccato (1/2 duration)
Irregular groupings are notated above the duration line
Duration letters will always appear directly above the note/fret number it represents the
duration for.  Duration letters with no fret number below them represent rests.  Multi-
bar rests are notated in the form Wxn, where n is the number of bars to rest for.  Low
melody durations appear below the staff

Tablature Legend
----------------
 h   - hammer-on
 p   - pull-off
 b   - bend
 pb  - pre-bend
 r   - bend release (if no number after the r, then release immediately)
 /\  - slide into or out of (from/to "nowhere")
 s   - legato slide
 S   - shift slide
 - natural harmonic
[n]  - artificial harmonic
n(n) - tapped harmonic
 ~   - vibrato
 tr  - trill
 T   - tap
 TP  - trem. picking
 PM  - palm muting
\n/  - tremolo bar dip; n = amount to dip
 \n  - tremolo bar down
 n/  - tremolo bar up
/n\  - tremolo bar inverted dip
 =   - hold bend; also acts as connecting device for hammers/pulls
 <> - volume swell (louder/softer)
 x   - on rhythm slash represents muted slash
 o   - on rhythm slash represents single note slash

Misc Legend
-----------
 |  - bar
||  - double bar
||o - repeat start
o|| - repeat end
*|  - double bar (ending)
 :  - bar (freetime)
 $  - Segno
 &  - Coda
Tempo markers -  = BPM(8/16=s8/s16), where s8 = swing 8ths, s16 = swing 16ths
Suggest correction
Give kudos to tab author, rate the tab!
1 2 3 4 5
comments
print report bad tab
guest
You may want to rate the tab now too:
select rating
Wanna post a correction for this tab? Suggest correction