Oops, an error
Loading. Please wait.

Crystalis - Mount Sabre Bass Tab

version 1
version 1

Whole song

  • There is no plain bass tab for this song.

Interactive

4 views 1 this week
no commentswrite comment
1 2 3 4 5
3 more votes to show rating
add to favorites
launch autoscroll
font size
0
reset
guitar tuner
Autoscroll
slow
fast
+/-
esc
set tempo
stop
Help us to improve Ultimate-Guitar.com Take our survey!
×
Author
Difficulty
intermediate
About this tab version
There is no plain bass tab for this song. Was this info helpful? Yes No
Crystalis (NES) - Mount Sabre theme...on bass!!!
Tempo: 140
Gtr I (E A D G)

[Whole Song]
     H.      +E  E   H.      E S S   H.      +E  E   W
G||----------------|---------------|---------------|------|
D||o-7-------(7)-7-|-7-------7-7-7-|-5-------(5)-5-|-5----|
A||o---------------|---------------|---------------|------|
E||----------------|---------------|---------------|------|

   Q.   S S E S S E S S   Q.   S S E S S E S S   Q  Q  Q  Q    Q  Q  Q  Q
G|----------------------|----------------------|-------------|-------------|
D|----------------------|-5----5-5-5-5-5-5-5-5-|-7--5--------|-7--5--------|
A|-8----8-8-8-8-8-8-8-8-|----------------------|-------9--8--|-------9--8--|
E|----------------------|----------------------|-------------|-------------|

   E S S E S S E S S E S S   E S S E S S E S S E S S
G|-------------------------|-------------------------|
D|-7-7-7-7-7-7-7-7-7-7-7-7-|-------------------------|
A|-------------------------|-8-8-8-8-8-8-8-8-8-8-8-8-|
E|-------------------------|-------------------------|

   E S S E S S E S S E S S   E S S E S S E S S E S S
G|-------------------------|----------------------------|
D|-5-5-5-5-5-5-5-5-5-5-5-5-|----------------------------|
A|-------------------------|----------------------------|
E|-------------------------|-8-8-8-8-8-8-9-9-9-9-9-9----|

   E S S E S S E S S E S S   E S S E S S E S S E S S
G|-------------------------|-------------------------|
D|-------------------------|-7-7-7-7-7-7-7-7-7-7-7-7-|
A|-5-5-5-5-5-5-5-5-5-5-5-5-|-------------------------|
E|-------------------------|-------------------------|

   E S S E S S E S S E S S   E S S E S S E S S E S S
G|-------------------------|----------------------------|
D|-8-8-8-8-8-8-8-8-8-8-8-8-|----------------------------|
A|-------------------------|-7-7-7-7-7-7-7-7-7-7-7-7----|
E|-------------------------|----------------------------|

   E S S +S  S E E S S +S  S E   E S S +S  S E E S S +S  S  E
G|-----------------------------|------------------------------|
D|-7-7-7-(7)-7---7-7-7-(7)-7---|-7-7-7-(7)-7---7-7-7-(7)-7----|
A|-------------7-------------7-|-------------7-------------10-|
E|-----------------------------|------------------------------|

   E S S +S  S E E S S +S  S E   E S S +S  S E E S S +S  S  E
G|-----------------------------|---------------------------------|
D|-----------------------------|---------------------------------|
A|-8-8-8-(8)-8---8-8-8-(8)-8---|-8-8-8-(8)-8---8-8-8-(8)-8-10----|
E|-------------8-------------8-|-------------8-------------------|

   E S S +S  S E  E  S  S  +S   S  E   E S S +S  S E E S S +S  S S S
G|-----------------------------------|-------------------------------|
D|-7-7-7-(7)-7-----------------------|-------------------------------|
A|-------------7-10-10-10-(10)-10----|-8-8-8-(8)-8---8-8-8-(8)-8-8-8-|
E|--------------------------------10-|-------------8-----------------|

   E S S E S S E S S E S S   E S S E S S E S S E S S
G|-------------------------|----------------------------||
D|-------------------------|---------------------------o||
A|-7-7-7-7-7-7-7-7-7-7-7-7-|-7-7-7-7-7-7-7-7-7-7-7-7---o||
E|-------------------------|----------------------------||



Duration Legend
---------------
W - whole; H - half; Q - quarter; E - 8th; S - 16th; T - 32nd; X - 64th; a - acciaccatura
+ - note tied to previous; . - note dotted; .. - note double dotted
Uncapitalized letters represent notes that are staccato (1/2 duration)
Irregular groupings are notated above the duration line
Duration letters will always appear directly above the note/fret number it represents the
duration for.  Duration letters with no fret number below them represent rests.  Multi-
bar rests are notated in the form Wxn, where n is the number of bars to rest for.  Low
melody durations appear below the staff

Tablature Legend
----------------
 h   - hammer-on
 p   - pull-off
 b   - bend
 pb  - pre-bend
 r   - bend release (if no number after the r, then release immediately)
 /\  - slide into or out of (from/to "nowhere")
 s   - legato slide
 S   - shift slide
 - natural harmonic
[n]  - artificial harmonic
n(n) - tapped harmonic
 ~   - vibrato
 tr  - trill
 T   - tap
 TP  - trem. picking
 PM  - palm muting
\n/  - tremolo bar dip; n = amount to dip
 \n  - tremolo bar down
 n/  - tremolo bar up
/n\  - tremolo bar inverted dip
 =   - hold bend; also acts as connecting device for hammers/pulls
 <> - volume swell (louder/softer)
 x   - on rhythm slash represents muted slash
 o   - on rhythm slash represents single note slash

Misc Legend
-----------
 |  - bar
||  - double bar
||o - repeat start
o|| - repeat end
*|  - double bar (ending)
 :  - bar (freetime)
 $  - Segno
 &  - Coda
Tempo markers -  = BPM(8/16=s8/s16), where s8 = swing 8ths, s16 = swing 16ths

Suggest correction
Give kudos to tab author, rate the tab!
1 2 3 4 5
comments
print report bad tab
guest
You may want to rate the tab now too:
select rating
Wanna post a correction for this tab? Suggest correction