Oops, an error
Loading. Please wait.

Crystalis - Overworld Theme Bass Tab

version 1
version 1

Whole song

  • There is no plain bass tab for this song.

Interactive

4 views 1 this week
no commentswrite comment
1 2 3 4 5
3 more votes to show rating
add to favorites
launch autoscroll
font size
0
reset
guitar tuner
Autoscroll
slow
fast
+/-
esc
set tempo
stop
Help us to improve Ultimate-Guitar.com Take our survey!
×
Author
Difficulty
intermediate
About this tab version
There is no plain bass tab for this song. Was this info helpful? Yes No
Crystalis (NES) - Overworld theme...on bass!!!
Tempo: 140
5 String bass (B E A D G)

[Whole Song]
    Gtr I
     E E E E E  E E  E   E E E E E E  E E
G|--------------------|------------------|
D|o---8---8---10---10-|---7---7----------|
A|--------------------|-----------8------|
E|o-6---6---8----8----|-5---5-------10-8-|
B|--------------------|---------6--------|

   E E E E E  E E  E   E E E E E  E E  E
G|-------------------|---9---9---10---10|
D|---8---8---10---10-|------------------|
A|-------------------|-7---7---8----8---|
E|-6---6---8----8----|------------------|
B|-------------------|------------------|

   E E E E E  E E  E   E E E E E E  E E   E E E E E  E E  E   E E E E E E E E
G|-------------------|------------------|-------------------|-----------5---4-|
D|---8---8---10---10-|---7---7----------|---8---8---10---10-|-----------------|
A|-------------------|-----------8------|-------------------|---7---7---------|
E|-6---6---8----8----|-5---5-------10-8-|-6---6---8----8----|-----------------|
B|-------------------|---------6--------|-------------------|-5---5---5---5---|

   S S E Q  E S S E S S   S S E Q  E S S E S S
G|----------------------|----------------------|
D|-8-8-8------8-8---8-8-|-8-8-8------8-8---9-9-|
A|----------------------|----------------------|
E|----------6-----6-----|----------6-----6-----|
B|----------------------|----------------------|

    S  S  E Q  E  S  S E  S  S   E S S E S S E S S E S S
G|-----------------------------|---------------------------|
D|-10-10-10------10-10---10-10-|---------------------------|
A|-----------------------------|---------------------------|
E|-------------8-------8-------|-8-8-8-8-8-8-8-8-8-8-8-8---|
B|-----------------------------|---------------------------|

   S E S S E S E E E E   S E S S E S E E E E
G|---------------------|---------------------|
D|---------------------|---------------------|
A|-------5-5-5---------|-------3-3-3---------|
E|-6-6-6---------------|-5-5-5---------------|
B|-------------3-3-1-1-|-------------1-1-3-1-|

   E E E E E S S E E   E  E E  E E  S  S E  E
G|-------------------|---------------------------|
D|---8---8---8-8---8-|---10---10---10-10---10----|
A|-------------------|---------------------------|
E|-6---6---6-----6---|-8----8----8-------8-------|
B|-------------------|---------------------------|

   E E E E E E E E   E E E E E E E E   E E E E E E E E   E E E E E E E E
G|-----------------|-----------------|-----------------|-----------------|
D|-----------------|-----------------|-----------------|-----------------|
A|---5---8---7---6-|---5---8---7---6-|---5---8---7---6-|---5---5---3---4-|
E|-----------------|-----------------|-----------------|-----------------|
B|-3---6---5---4---|-3---6---5---4---|-3---6---5---4---|-3---3---1---2---|

   E E E E E E E E   E E E E E E E E   E E E E E E E E   E E E E E E E E
G|-----------------|-----------------|-----------------|-----------------|
D|-----------------|-----------5---5-|---8---8---8---8-|---8---8---8-----|
A|---5---8---7---6-|---5---8---------|-----------------|-----------------|
E|-----------------|---------3---3---|-6---6---6---6---|-6---6---6---6-8-|
B|-3---6---5---4---|-3---6-----------|-----------------|-----------------|

   E E E E E E E E   E E E E E E E E   E E E E E E E E   E E E E E E E E
G|-----------------|-----------------|-----------------|------------------||
D|-----------------|-----------------|-----------------|-----------------o||
A|---5---5---5---5-|---5---5---5---5-|---5---5---5---5-|-5---5---5---5-3--||
E|-----------------|-----------------|-----------------|-----------------o||
B|-3---3---3---3---|-3---3---3---3---|-3---3---3---3---|------------------||


************************************
Duration Legend

   W    whole
   H    half
   Q    quarter
   E    8th
   S    16th
   T    32nd

************************************
Suggest correction
Give kudos to tab author, rate the tab!
1 2 3 4 5
comments
print report bad tab
guest
You may want to rate the tab now too:
select rating
Wanna post a correction for this tab? Suggest correction