Oops, an error
Loading. Please wait.

Crystalis - Shyron Town Bass

version 1
version 1

Whole song

  • There is no plain bass tab for this song.

Interactive

16 views 1 this week
no commentswrite comment
1 2 3 4 5
3 more votes to show rating
add to favorites
launch autoscroll
font size
0
reset
guitar tuner
×
Best way to learn
"Crystalis - Shyron Town"
Autoscroll
slow
fast
+/-
esc
set tempo
stop
Author
Difficulty
  follow
intermediate
About this tab version
There is no plain bass tab for this song. Was this info helpful? Yes No
Crystalis (NES) - Shyron Town theme...on bass!!!

Gtr I (B E A D G) - 'Untitled'

[Whole Song]

    Q=150
    Gtr I
    W          W          W          W
||-----------|----------|----------|----------|
||o----------|----------|----------|----------|
||-----------|----------|----------|----------|
||o----------|----------|----------|----------|
||-----------|----------|----------|----------|


  W          W          W          H    Q   E  E
|----------|----------|----------|--------------|
|----------|----------|----------|--------------|
|----------|----------|----------|------------12|
|----------|----------|----------|---------13---|
|----------|----------|----------|--------------|


   E  E  E  E  E  E  E  E    E E  E  E  E E  E  E
|----10----------10-------|----9----------9-------|
|-10----------10----------|-10---------10---------|
|----------12----------10-|---------10---------10-|
|-------13----------12----|------12---------11----|
|-------------------------|-----------------------|


  E E  E  E E E E E   E E E E E E E E
|---8---------8-----|---5-------5-----|
|-8---------8-------|-5-------5-------|
|--------10-------7-|-------7---------|
|-----11--------8---|-----8---------5-|
|-------------------|-------------5---|


  E E E E E E E E   E E E E E E E E   E E E E E E E E   E E E E E E Q
|-----------------|-----------------|-----------------|-------------6---||
|-----------------|-5-------4-------|-----------------|-----------7----o||
|-5-------5-----5-|-------4---------|-7-------8-------|---4-7-4-7-------||
|-------5-----3---|-----2---------8-|-------8-----5---|-5--------------o||
|-----5-----------|-------------6---|-----5---------5-|-----------------||
Suggest correction
Give kudos to tab author, rate the tab!
1 2 3 4 5
comments
print report bad tab
guest
You may want to rate the tab now too:
select rating
Wanna post a correction for this tab? Suggest correction