Oops, an error
Loading. Please wait.

Dark Souls 2 - Majula Tab

214 views 9 this week
no commentswrite comment
1 2 3 4 5
3 more votes to show rating
add to favorites
launch autoscroll
font size
0
reset
how to read this tab
guitar tuner
Autoscroll
slow
fast
+/-
esc
set tempo
stop
Help us to improve Ultimate-Guitar.com Take our survey!
×
Author
Difficulty
novice
Majula's theme from Dark Souls II (original sound by Motoi Sakuraba, tab by DracoAzius & HuGeay):

 [Intro]
 e|---7--7-5-|---8---||---7-|---7-5-||---7--|---7-5-|
 B|-5--------|-5---5-||-5---|-5-----||-5----|-5-----|
 G|----------|-------||-----|-------||------|-------|
 D|----------|-------||-----|-------||------|-------|
 A|----------|-------||-----|-------||------|-------|
 E|----------|-------||-----|-------||------|-------|
  
 [Verse 1]
 e|---7--7-5-|---8---||---7-5---|---7-5-||---7-5---|---7-|
 B|-5--------|-5---5-||-5-----5-|-5-----||-5-----5-|-5---|
 G|----------|-------||---------|-------||---------|-----|
 D|----------|-------||---------|-------||---------|-----|
 A|----------|-------||---------|-------||---------|-----|
 E|----------|-------||---------|-------||---------|-----|
  
 [Verse 2]
 e|---7--7-5-|---8---||---7-5---|---7-||---7-5-||---7-5---|---7-5------|
 B|-5--------|-5---5-||-5-----5-|-5---||-5-----||-5-----5-|-5-----5--5-|
 G|----------|-------||---------|-----||-------||---------|------------|
 D|----------|-------||---------|-----||-------||---------|------------|
 A|----------|-------||---------|-----||-------||---------|------------|
 E|----------|-------||---------|-----||-------||---------|------------|

 [Solo 1]
 e|----------||-------0---||-----------||---7-5-|
 B|-------3--||---0-1-----||-------3---||-5-----|
 G|---0-2----||-2-------0-||---0-2-----||-------|
 D|-3------3-||-----------||-3-------3-||-------|
 A|----------||-----------||-----------||-------|
 E|----------||-----------||-----------||-------|

 [Solo 2]
 e|----------||-------0---||-----------|
 B|-------3--||---0-1-----||-------3---|
 G|---0-2----||-2-------0-||---0-2-----|
 D|-3------3-||-----------||-3-------3-|
 A|----------||-----------||-----------|
 E|----------||-----------||-----------|

 [End]
 e|---7-|---7-|---7-|---7-||---7-|---7-|---7-|---7-|----7-||---7-5---|---8---|
 B|-5---|-5---|-5---|-5---||-5---|-5---|-5---|-5---|--5---||-5-----5-|-5---5-|
 G|-----|-----|-----|-----||-----|-----|-----|-----|------||---------|-------|
 D|-----|-----|-----|-----||-----|-----|-----|-----|------||---------|-------|
 A|-----|-----|-----|-----||-----|-----|-----|-----|------||---------|-------|
 E|-----|-----|-----|-----||-----|-----|-----|-----|------||---------|-------| 
Suggest correction
Give kudos to tab author, rate the tab!
1 2 3 4 5
comments
print report bad tab
guest
You may want to rate the tab now too:
select rating
Wanna post a correction for this tab? Suggest correction