Oops, an error
Loading. Please wait.

Deadly Premonition - The Woods And The Goddess tab

10,958 views 21 this week
2 commentsread comments
1 2 3 4 5
x 5
add to favorites
×
Save as Personal and add changes to this tab that will be seen only by you. Learn more ›
×
You can save this tab as Personal to edit and correct it or add notes. All changes will be seen only by you. Learn more »
launch autoscroll
font size
0
reset
how to read this tab
guitar tuner
edit
Autoscroll
slow
fast
+/-
esc
set tempo
stop
Author
Difficulty
-------------------------------------------------------------------------------
                 The Woods and the Goddess - Deadly Premonition
-------------------------------------------------------------------------------
Tabbed by: David
Email: ugly_pugly2000@hotmail.com

Tuning: Standard

e|---------------0---3-2-3h5----------------0---3-2-3-5-----10-----8-5--|
B|-----------1-3---1--------------------1-3---1---------7------5--------|
G|---------2--------------------------2---------------------7------5----|  x 4
D|-------2--------------------------2-------------------4-7----2-5------|
A|---0(first time only)---------0------------------------------------0--|
E|----------------------------------------------------------------------|


e|-----------0---3-2-3h5-----------------0---3-2-3-5--------------------|
B|-------1-3---1---------------------1-3---1----------------------------|
G|-----2---------------------------2------------------------------------|
D|---2---------------------------2--------------------------------------|
A|--------------------------0-------------------------------------------|
E|----------------------------------------------------------------------|


e|-------------------1p0-1h3--------------2-3-2-3-2-3h5-----10-----8-5--|
B|--------------------------------------3---------------7------5--------|
G|---------0-1h2-4-2------------------0---------------------7------5----|
D|-------3--------------------------0-------------------4-7----2-5------|
A|-------------------------------------------------------------------0--|
E|---1----------------------------3-------------------------------------|


e|---------------0---3-2-3h5----------------0---3-2-3-5-----10-----8-5--|
B|-----------1-3---1--------------------1-3---1---------7------5--------|
G|---------2--------------------------2---------------------7------5----|  x 3
D|-------2--------------------------2-------------------4-7----2-5------|
A|------------------------------0------------------------------------0--|
E|----------------------------------------------------------------------|


e|---------------0---3-2-3h5-----------------0---3-2-3-5----------------|
B|-----------1-3---1---------------------1-3---1------------------------|
G|---------2---------------------------2--------------------------------|
D|-------2---------------------------2----------------------------------|
A|-------------------------------0--------------------------------------|
E|----------------------------------------------------------------------|


e|-------------------1p0-1h3--------------2-3-2-3-2-3h5-----10-----8-5--|
B|--------------------------------------3---------------7------5--------|
G|---------0-1h2-4-2------------------0---------------------7------5----|
D|-------3--------------------------0-------------------4-7----2-5------|
A|-------------------------------------------------------------------0--|
E|---1---------------------3------3-------------------------------------|


e|---------------0---3-2-3h5----------------0---3-2-3-5-----10-----8-5--|
B|-----------1-3---1--------------------1-3---1---------7------5--------|
G|---------2--------------------------2---------------------7------5----|  x 2
D|-------2--------------------------2-------------------4-7----2-5------|
A|------------------------------0------------------------------------0--|
E|----------------------------------------------------------------------|


e|-------------------------1--------------------12-----------------------|
B|---------------------1----------------------------12-------------------|
G|-------2--0--2---2----------------------------9------------------------|
D|---3-------------------------2---2---5---9--------9--------------------|
A|---------------------------------------7---10--------------------------|
E|---1-------------------------0-----0-----------------------------------|


e|---1-1-----0-------1---1----------------------12-----------------------|
B|-------3-5-------3---3----------------------------12-------------------|
G|------------------------------0---------------9------------------------|
D|---------------------------2-----2---5---9-------9---------------------|
A|---------------------------------------7---10--------------------------|
E|---------------------------0-------0-----------------------------------|


e|-------------------------1--------------------12-----------------------|
B|---------------------1----------------------------12-------------------|
G|-------2--0--2---2----------------------------9------------------------|
D|---3-------------------------2---2---5---9--------9--------------------|
A|---------------------------------------7---10--------------------------|
E|---1-------------------------0-----0-----------------------------------|

                                                                          _
e|---2----0--2--3--2--0----------3-------------------------3-------------  |
B|----------------------------3-----3-------------------3-----3----------  |
G|------2----------------0------------------------0--4-------------------  |
D|-----------------------------------------------------------------------  |
A|---------------------------------------3h5-2---------------------------  |
E|-----------------------------------------------------------------------  |
                                                                           |
                                                                           |
e|----------0-----0----------------------------0-------------------------  |
B|------------1-----1------1-3-1--------1----------1---------------------  |
G|--------0-----------0---------------0---0------------0-----------------  |
D|----------------------------------2-------------------------2----------  |
A|---------------------------------------------------------------3-------  |
E|---3-------------------------------------------------------------------  |
                                                                           |
                                                                           |
e|----------------1------------------------------------------------------  |
B|--------------------------0--------------------------------------------  |
G|-------2--5p2--------2--------4---4-------0-2-4------------------------  |
D|--------------------------------5---5---2------------------------------  |  x2
A|---0-------------------------------------------------------------------  |
E|--------------------------------------0--------------------------------  |
                                                                           |
                                                                           |
e|------------0-----------------------3----------------------------------  |
B|---1---1--------1-----------------------3------------------------------  |
G|-----2---2----------2---0--4---4------------0--------------------------  |
D|-----------------------------5---5-------------------------------------  |
A|-----------------------------------------------------------------------  |
E|------------------------3----------------------------------------------  |
                                                                           |
                                                                           |
e|------------------2--2-------------------------1-----------------------  |
B|-----------3---3---------3------1---3---3---------0---------6----------  |
G|-------------2---------2---2----------2-----2-------------4------------  |
D|---0-----4----------------------------------------------5-----5--------  |
A|------3----------------------------------------------------------------  |
E|----------------------------------------------------------------------- _|


e|---------------------0-------------------------------0-----------------|
B|------------1------------1------------------1------------1-------------|
G|----------0---0--------------0------------0---0--------------0---------|
D|--------2-------------------------------2------------------------------|
A|---3-------------------------------3-----------------------------------|
E|-----------------------------------------------------------------------|


e|---------/0-----------0---------------/0----------------0--------------|
B|--------/0------0--------0-----------/0----------3-0-3-------0---------|
G|-------/1-----1---1---------1-------/1------4-1-------------------1----|
D|------/2----2----------------------/2----------------------------------|
A|-----/2----------------------------------------------------------------|
E|---0-------------------------------------------------------------------|

e|---------------0---3-2-3h5----------------0---3-2-3-5-----10-----8-5--|
B|-----------1-3---1--------------------1-3---1---------7------5--------|
G|---------2--------------------------2---------------------7------5----|  x 4
D|-------2--------------------------2-------------------4-7----2-5------|
A|------------------------------0------------------------------------0--|
E|----------------------------------------------------------------------|


e|---------------0---3-2-3h5-----------------0---3-2-3-5----------------|
B|-----------1-3---1---------------------1-3---1------------------------|
G|---------2---------------------------2--------------------------------|
D|-------2---------------------------2----------------------------------|
A|-------------------------------0--------------------------------------|
E|----------------------------------------------------------------------|


e|-------------------1p0-1h3--------------2-3-2-3-2-3h5-----10-----8-5--|
B|--------------------------------------3---------------7------5--------|
G|---------0-1h2-4-2------------------0---------------------7------5----|
D|-------3--------------------------0-------------------4-7----2-5------|
A|-------------------------------------------------------------------0--|
E|---1----------------------------3-------------------------------------|


e|---------------0---3-2-3h5----------------0---3-2-3-5-----------------|
B|-----------1-3---1--------------------1-3---1-------------------------|
G|---------2--------------------------2---------------------------------|
D|-------2--------------------------2-----------------------------------|
A|------------------------------0---------------------------------------|
E|----------------------------------------------------------------------|

e|-------10-----8-----10-----8-----/5------|
B|---7------5-----7------5--------/5-------|
D|-------7------5-----7------5---/5--------|
G|---4-7----2-5---4-7----2-2----/7---------|
A|-----------------------------/0----------|
E|-----------------------------------------|

            
            
Suggest correction
Creating personal tab
Creating personal tab
You can edit any tab online and save it as your Personal.

You can edit, replace or remove any tab part or add personal notes – all changes will be seen only by you.

Personal tabs can be accessed anytime from any device, even offline.
Learn more »
comments
print report bad tab
2 comments total.
0 reply
lgjunior 20 Aug 30, 2013 09:23 AM

Great tab! a bit tricky tho

guest
You may want to rate the tab now too:
select rating
Wanna post a correction for this tab? Suggest correction