Oops, an error
Loading. Please wait.

Doom - E1M8 - Sign Of Evil tab

version 1
version 1

Whole song

Interactive

898 views 21 this week
no commentswrite comment
1 2 3 4 5
2 more votes to show rating
add to favorites
×
Save as Personal and add changes to this tab that will be seen only by you. Learn more ›
×
You can save this tab as Personal to edit and correct it or add notes. All changes will be seen only by you. Learn more »
launch autoscroll
font size
0
reset
how to read this tab
guitar tuner
edit
Autoscroll
slow
fast
+/-
esc
set tempo
stop
Author
Difficulty
Composer: Robert Prince (id Software)
Track: Sign of Evil
Game: Doom (1993)

This track was used in E1M8, E3M4 and E4M1. I did my best to make it as accurate as I could, but I added some
parts onto it to give it a bit more flair akin to how it sounds in modern covers of the song. It sounds
accurate on my guitar, but if it sounds off on yours, it's probably not too hard to adjust in your head. I
haven't tabbed it out for timing but if you know the song then you'll have a fair idea what to do. The song is
in Standard tuning but you could play in any xADGBe tuning (Drop D, etc). All criticism and corrections are
appreciated.

/ - Slide up
\ - Slide down
~ - Vibrato

e|--------------------------------------------------------------|
B|8/9~~~---8--6--4--8~~------8/9~~~---8--6--4--8/9\7/8~~--------|
G|--------------------------------------------------------------|
D|--------------------------------------------------------------|
A|--------------------------------------------------------------|
E|--------------------------------------------------------------|

e|------------8-------------------------------------------------|
B|8/9~~~---9-----9\8~~------9~~~---10--13--16--13~~-------------|
G|--------------------------------------------------------------|
D|--------------------------------------------------------------|
A|--------------------------------------------------------------|
E|--------------------------------------------------------------|

e|--------------------------------------------------------------|
B|8/9~~~---8--6--4--8~~------8/9~~~---8--6--4--8/9\7/8~~--------|
G|--------------------------------------------------------------|
D|--------------------------------------------------------------|
A|--------------------------------------------------------------|
E|--------------------------------------------------------------|

e|------------8-------------------------------------------------|
B|8/9~~~---9-----9\8~~------9~~~---10--13--16--13~~-------------|
G|--------------------------------------------------------------|
D|--------------------------------------------------------------|
A|--------------------------------------------------------------|
E|--------------------------------------------------------------|

e|--------------------------------------------------------------|
B|--------------------------------------------------------------|
G|--------------------------------------------------------------|
D|5/6~~~---5--3-----5~~------5/6~~~---5--3-----5/6\4/5~~--------|
A|---------------6--------------------------6-------------------|
E|--------------------------------------------------------------|

e|--------------------------------------------------------------|
B|--------------------------------------------------------------|
G|------------5--------------------------5--8--5~~--------------|
D|5/6~~~---6-----6\5~~------5/6~~~---6--------------------------|
A|--------------------------------------------------------------|
E|--------------------------------------------------------------|

e|--------------------------------------------------------------|
B|--------------------------------------------------------------|
G|9/10~~~---10-8-7-5-8~~~--5~~------9/10~~~---10-8-7-5--8~~-----|
D|--------------------------------------------------------------|
A|--------------------------------------------------------------|
E|--------------------------------------------------------------|

e|--------------------------------------------------------------|
B|--------------------------------------------------------------|
G|9/10~~~---10-8-7-5-8~~-7/8\7-5~~------------------------4--5~~|
D|----------------------------------5-5/6~~~--5-5/6~~~----------|
A|--------------------------------------------------------------|
E|--------------------------------------------------------------|

            
            
Suggest correction
Creating personal tab
Creating personal tab
You can edit any tab online and save it as your Personal.

You can edit, replace or remove any tab part or add personal notes – all changes will be seen only by you.

Personal tabs can be accessed anytime from any device, even offline.
Learn more »
Give kudos to tab author, rate the tab!
1 2 3 4 5
comments
print report bad tab
guest
You may want to rate the tab now too:
select rating
Wanna post a correction for this tab? Suggest correction