Oops, an error
Loading. Please wait.

Doom Theme Tab

version 1
version 1

Intro

Whole song

Interactive

45,325 views 141 this week
4 commentsread comments
1 2 3 4 5
x 18
add to favorites
launch autoscroll
font size
0
reset
how to read this tab
guitar tuner
×
Best way to learn
"Doom Theme"
Autoscroll
slow
fast
+/-
esc
set tempo
stop
-----------------------------------------------------------------
Doom95 (intro) - ID Software
-----------------------------------------------------------------
Tabbed by: KoolKat

Email: koolkat_x@yahoo.com

Misc:
 I was looking for a tab of this song, but none on Ultimate
Guitar sounded good. I looked at the MIDI file and painstakingly
converted the notes, so this is the real deal. Hope you like it.
Hi to the guys at www.doomworld.com and www.newdoom.com !


Tuning:

e|---------------|-----------------| 
B|---------------|-----------------|
G|---------------|-----------------|
D|---4-3---5--4--|---4-3---2-0-----|
A|-2-----2-------|-2-----2-----4-0-|
E|---------------|-----------------|(x4)

e|---------------|-----------------| 
B|---------------|-----------------|
G|---------------|-----------------|
D|---0-----1--0--|---0-------------|
A|-----4---------|-----4---3-1-0---|
E|-3-----3-------|-3-----3-------1-|(x2)

e|---------------|-----------------| 
B|---------------|-----------------|
G|---------------|-----------------|
D|---4-3---5--4--|---4-3---2-0-----|
A|-2-----2-------|-2-----2-----4-0-|
E|---------------|-----------------|(x2)

e|---------------|---------------|
B|---------------|---------------|
G|---------------|---------------|
D|---0-----1--0--|---------------|
A|-----4---------|---2-1---3--2--|
E|-3-----3-------|-0-----0-------|
Suggest correction
comments
print report bad tab
4 comments total. Showing first comments.
0 reply
liquiddi 10 Jun 19, 2007 12:48 AM

Amazing tab. Sounds perfect.

0 reply
badbass64 199 Sep 08, 2009 04:15 PM

A tab with seven ratings should have at least two comments...

0 reply
knotrice 118 Dec 15, 2010 03:12 AM

Nice, but it's not the Doom theme.

guest
You may want to rate the tab now too:
select rating
Wanna post a correction for this tab? Suggest correction