Oops, an error
Loading. Please wait.

Double Dragon 2 - Mission 7 Bass Tab

version 1
version 1

Whole song

  • There is no plain bass tab for this song.

Interactive

7 views 1 this week
no commentswrite comment
1 2 3 4 5
3 more votes to show rating
add to favorites
launch autoscroll
font size
0
reset
guitar tuner
Autoscroll
slow
fast
+/-
esc
set tempo
stop
Help us to improve Ultimate-Guitar.com Take our survey!
×
Author
Difficulty
advanced
About this tab version
There is no plain bass tab for this song. Was this info helpful? Yes No
#----------------------------------PLEASE NOTE---------------------------------#
#This file is the author's own work and represents their interpretation of the #
#song. You may only use this file for private study, scholarship, or research. #
#------------------------------------------------------------------------------##

Double Dragon 2 (NES) - Mission 7 theme...on bass!!!

Gtr I (B E A D G) 

    Q=140
    Gtr I
    E S S E Q  S S E E   E S S S S Q  S S S S S S
G||---------------------|--------------------------|
D||o-------2------------|-------2-4-2--4-6-4-2-----|
A||----------4------2-4-|----------------------4-2-|
E||o---2-4------2-4-----|---2-4--------------------|
B||--2------------------|-2------------------------|


  E S S E Q  S S E E   E S S S S Q  S S S S S S
|--------------------|---------------------------|
|-------2------------|-------2-4-2--4-6-4-2------|
|---------4------2-4-|----------------------4-2--|
|---2-4------2-4-----|---2-4---------------------|
|-2------------------|-2-------------------------|


  E S S E Q  S S E E   E S S E Q  S S E E
|-------2------------|-------2------------|
|---------4------2-4-|---------4------2-4-|
|---2-4------2-4-----|---2-4------2-4-----|
|-2------------------|-2------------------|
|--------------------|--------------------|


  E S S E Q  S S E E   E S S S S Q  S S S S S S
|--------------------|---------------------------|
|-------2------------|-------2-4-2--4-6-4-2------|
|---------4------2-4-|----------------------4-2--|
|---2-4------2-4-----|---2-4---------------------|
|-2------------------|-2-------------------------|


  E S S +E  E H      E S S +E  E H
|------------------|------------------|
|------------------|------------------|
|------------------|------------------|
|-5---5-(5)-4------|-2---2-(2)-4------|
|------------------|------------------|


  E S S +E  E Q  E E   +E  S S S S S S S S S S S S S S
|--------------------|-------------------4----------------||
|--------------------|-------------4-6-7---7-6-4---------o||
|--------------------|---------3-6---------------7-6-4----||
|-5---5-(5)-4--------|-----4-7---------------------------o||
|------------------7-|-(7)--------------------------------||


Suggest correction
Give kudos to tab author, rate the tab!
1 2 3 4 5
comments
print report bad tab
guest
You may want to rate the tab now too:
select rating
Wanna post a correction for this tab? Suggest correction