Oops, an error
Loading. Please wait.

Double Dragon 2 - Mission 7 Tab

version 1
version 1

Whole song

  • There is no plain tab of this song.

Interactive

16 views 1 this week
no commentswrite comment
1 2 3 4 5
3 more votes to show rating
add to favorites
launch autoscroll
font size
0
reset
how to read this tab
guitar tuner
Autoscroll
slow
fast
+/-
esc
set tempo
stop
Help us to improve Ultimate-Guitar.com Take our survey!
×
Author
Difficulty
advanced
About this tab version
There is no plain tab of this song. Was this info helpful? Yes No
#----------------------------------PLEASE NOTE---------------------------------#
#This file is the author's own work and represents their interpretation of the #
#song. You may only use this file for private study, scholarship, or research. #
#------------------------------------------------------------------------------##

Double Dragon 2 (NES) - Mission 7 theme

Gtr I (E A D G B E) - 'Squarewave 1'
Gtr II (E A D G B E) - 'Squarewave 2'

    Q=140
    Gtr I
    E S  S E  Q  S  S E  E   E S  S S  S Q   S  S  S  S  S  S
||-------------------------|----------------14-16-14-12-------|
||o--------9---------------|--------9-10-9--------------14-12-|
||------------9-------6--9-|----------------------------------|
||----7--9-------7--9------|---7--9---------------------------|
||o-7----------------------|-7--------------------------------|
||-------------------------|----------------------------------|
|
|   Gtr II
|   E S  S E  Q  S  S E  E   E S  S S  S Q   S  S  S  S  S  S
||-------------------------|----------------------------------|
||o------------------------|--------------------9-------------|
||---------9---------------|--------9-11-9--11----11--9-------|
||-----------11-------9-11-|----------------------------11--9-|
||o---9-11-------9-11------|---9-11---------------------------|
||--9----------------------|-9--------------------------------|


  E S  S E  Q  S  S E  E   E S  S S  S Q   S  S  S S  S S
|------------------------|----------------11-12-11-9-------|
|--------9---------------|--------9-10-9-------------10-9--|
|-----------9-------6--9-|---------------------------------|
|---7--9-------7--9------|---7--9--------------------------|
|-7----------------------|-7-------------------------------|
|------------------------|---------------------------------|
|
| E S  S E  Q  S  S E  E   E S  S S  S Q   S  S  S S  S S
|------------------------|---------------------------------|
|------------------------|--------------------9------------|
|--------9---------------|--------9-11-9--11----11-9-------|
|----------11-------9-11-|---------------------------11-9--|
|---9-11-------9-11------|---9-11--------------------------|
|-9----------------------|-9-------------------------------|


   E  S  S  E  Q   S  S  E  E    E  S  S  E  Q   S  S  E  E
|-----------------------------|-----------------------------|
|----------14-----------------|----------14-----------------|
|-------------14--------13-14-|-------------14--------13-14-|
|----13-14--------13-14-------|----13-14--------13-14-------|
|-12--------------------------|-12--------------------------|
|-----------------------------|-----------------------------|
|
|  E  S  S  E  Q   S  S  E  E    E  S  S  E  Q   S  S  E  E
|-----------------------------|-----------------------------|
|----------10-----------------|----------10-----------------|
|-------------11---------9-11-|-------------11---------9-11-|
|-----9-11---------9-11-------|-----9-11---------9-11-------|
|--9--------------------------|--9--------------------------|
|-----------------------------|-----------------------------|


  E S  S E  Q  S  S E  E   E S  S S  S Q   S  S  S S  S S
|------------------------|----------------11-12-11-9-------|
|--------9---------------|--------9-10-9-------------10-9--|
|-----------9-------6--9-|---------------------------------|
|---7--9-------7--9------|---7--9--------------------------|
|-7----------------------|-7-------------------------------|
|------------------------|---------------------------------|
|
| E S  S E  Q  S  S E  E   E S  S S  S Q   S  S  S S  S S
|------------------------|---------------------------------|
|------------------------|--------------------9------------|
|--------9---------------|--------9-11-9--11----11-9-------|
|----------11-------9-11-|---------------------------11-9--|
|---9-11-------9-11------|---9-11--------------------------|
|-9----------------------|-9-------------------------------|


  E S S +E  E H      E S S +E  E H      E S S +E  E Q  E  E
|------------------|------------------|---------------------|
|------------------|------------------|---------------------|
|-9---9-(9)-8------|-6---6-(6)-8------|-9---9-(9)-8---------|
|------------------|------------------|------------------11-|
|------------------|------------------|---------------------|
|------------------|------------------|---------------------|
|
| E S S +E  E H      E S S +E  E H      E S S +E  E Q  E  E
|------------------|------------------|---------------------|
|------------------|------------------|---------------------|
|------------------|------------------|---------------------|
|-7---7-(7)-6------|-4---4-(4)-6------|-7---7-(7)-6-------4-|
|------------------|------------------|---------------------|
|------------------|------------------|---------------------|


   +E   S  S  S  S  S  S  S  S  S  S  S  S  S  S
|---------------------------11----------------------||
|---------------------12-14----14-12---------------o||
|---------------11-14----------------14-13-11-------||
|-(11)----13-14-------------------------------14----||
|------14------------------------------------------o||
|---------------------------------------------------||
|
|  +E   S  S  S  S  S  S  S  S  S  S  S  S  S  S
|----------------------4--5--7--5--4----------------||
|-------------------7-----------------7--5--4------o||
|-------------5--8-----------------------------6----||
|--(4)--6--9----------------------------------------||
|--------------------------------------------------o||
|---------------------------------------------------||


Suggest correction
Give kudos to tab author, rate the tab!
1 2 3 4 5
comments
print report bad tab
guest
You may want to rate the tab now too:
select rating
Wanna post a correction for this tab? Suggest correction