Oops, an error
Loading. Please wait.

Dr Mario - Fever tab

version 1
version 1

Whole song

Interactive

185 views 1 this week
no commentswrite comment
1 2 3 4 5
2 more votes to show rating
add to favorites
×
Save as Personal and add changes to this tab that will be seen only by you. Learn more ›
×
You can save this tab as Personal to edit and correct it or add notes. All changes will be seen only by you. Learn more »
launch autoscroll
font size
0
reset
how to read this tab
guitar tuner
edit
Autoscroll
slow
fast
+/-
esc
set tempo
stop
#----------------------------------PLEASE NOTE---------------------------------#
#This file is the author's own work and represents their interpretation of the #
#song. You may only use this file for private study, scholarship, or research. #
#------------------------------------------------------------------------------##

Dr. Mario (NES) - Fever Theme

Gtr I (E A D G B E) - 'Untitled'

  Q=150
  Gtr I
  W          W             E  E  E  E  E  E  E  E    E  E  E  E  E E Q
|----------|----------||--18-19-18-19-17-------17-|-18-19-17------------|
|----------|----------||o----------------20-20----|----------20-20------|
|----------|----------||--------------------------|---------------------|
|----------|----------||--------------------------|---------------------|
|----------|----------||o-------------------------|---------------------|
|----------|----------||--------------------------|---------------------|
|
| Gtr I
| W          W             E  E  E  E  E  E  E  E    E  E  E  E  E E Q
|----------|----------||--------------------------|---------------------|
|----------|----------||o-------11-12-------------|-------11-12---------|
|----------|----------||--12-12-------------------|-12-12---------------|
|----------|----------||--------------10-10-13-14-|-------------10------|
|----------|----------||o-------------------------|---------------------|
|----------|----------||--------------------------|---------------------|
|
| Gtr I
| W          W             E  E  E  E  E  E  E  E    E  E  E  E  E E Q
|----------|----------||--------------------------|---------------------|
|----------|----------||o-------------------------|---------------------|
|----------|----------||---7--9--7--9--9--8--7--9-|--7--9--7--7--9------|
|----------|----------||--------------------------|---------------------|
|----------|----------||o-------------------------|---------------------|
|----------|----------||--------------------------|---------------------|


   E  E  E  E  E  E  E  E    S  S  E  S  S  E  S  S  E  S  S  E
|-18-19-18-19-17-------17-|-------------------------------------|
|----------------20-20----|-------------------------------------|
|-------------------------|-------------------------------------|
|-------------------------|--9--9--9-10-10-10-11-11-11-12-12-12-|
|-------------------------|-------------------------------------|
|-------------------------|-------------------------------------|
|
|  E  E  E  E  E  E  E  E    S  S  E  S  S  E  S  S  E  S  S  E
|-------------------------|-------------------------------------|
|-------11-12-------------|-------------------------------------|
|-12-12-------------------|-------------------------------------|
|-------------10-10-13-14-|-----------7--7--7--8--8--8--9--9--9-|
|-------------------------|-10-10-10----------------------------|
|-------------------------|-------------------------------------|
|
|  E  E  E  E  E  E  E  E    S  S  E  S  S  E  S  S  E  S  S  E
|-------------------------|-------------------------------------|
|-------------------------|-------------------------------------|
|--7--9--8--9--9--8--7--9-|-------------------------------------|
|-------------------------|-------------------------------------|
|-------------------------|-10-10-10-10-10-10-10-10-10-10-10-10-|
|-------------------------|-------------------------------------|


   E  E  E  E  E  E  E  E    E  E  E  E  E E Q
|-18-19-18-19-17-------17-|-18-19-17------------|
|----------------20-20----|----------20-20------|
|-------------------------|---------------------|
|-------------------------|---------------------|
|-------------------------|---------------------|
|-------------------------|---------------------|
|
|  E  E  E  E  E  E  E  E    E  E  E  E  E E Q
|-------------------------|---------------------|
|-------11-12-------------|-------11-12---------|
|-12-12-------------------|-12-12---------------|
|-------------10-10-13-14-|-------------10------|
|-------------------------|---------------------|
|-------------------------|---------------------|
|
|  E  E  E  E  E  E  E  E    E  E  E  E  E E Q
|-------------------------|---------------------|
|-------------------------|---------------------|
|--7--9--7--9--9--8--7--9-|--7--9--7--7--9------|
|-------------------------|---------------------|
|-------------------------|---------------------|
|-------------------------|---------------------|


                             T                 T        T           T       T
                             |--3--|  |3-|  |--3--|     |---3----|    |--3--|
   E  E  E  E  E  E  E  E    S  S  S  E  S  S  S  S  S  E        S  E S S   S S S
|-18-19-18-19-17-------17-|-16-10p=7----------22-16p12----------------------------|
|----------------20-20----|----------------------------------------15-------------|
|-------------------------|-------------------------------------------8p6---------|
|-------------------------|----------10-19----------------------------------9-7h8-|
|-------------------------|-------------------------------------------------------|
|-------------------------|----------------10----------17-------14----------------|
|
|                            T              T     T
|                            |--3--|        |--3--|  |-3--|
|  E  E  E  E  E  E  E  E    S  S  S  E     S  S  S  E    S +Q            Q
|-------------------------|-22-16p12-11----16-10----------------------------------|
|-------11-12-------------|-------------------------------------------------------|
|-12-12-------------------|-----------------------8--6----------------------------|
|-------------10-10-13-14-|-------------------------------7-(7)-------------------|
|-------------------------|-------------------------------------------------------|
|-------------------------|-------------------------------------------------------|
|
|  E  E  E  E  E  E  E  E    W
|-------------------------|-------------------------------------------------------|
|-------------------------|-------------------------------------------------------|
|--7--9--8--9--9--8--7--9-|-------------------------------------------------------|
|-------------------------|-------------------------------------------------------|
|-------------------------|-------------------------------------------------------|
|-------------------------|-------------------------------------------------------|


   E     E  E  E  E  E  E  E    E     E  E  E  E E Q
|----------------------------|-------------------------|
|-16----17-16-17-15----------|-16----17-15-------------|
|-------------------17-17-14-|-------------17-17-------|
|----------------------------|-------------------------|
|----------------------------|-------------------------|
|----------------------------|-------------------------|
|
|  S  S  E  E  E  E  E  E  E    S  S  E  E  E  E E Q
|----------------------------|-------------------------|
|-------------------11-10----|-------------------------|
|-12-12-12-12-12-10-------10-|-12-12-12-12-12-14-------|
|----------------------------|----------------15-------|
|----------------------------|-------------------------|
|----------------------------|-------------------------|
|
|  W
|----------------------------|-------------------------|
|----------------------------|-------------------------|
|----------------------------|-------------------------|
|----------------------------|-------------------------|
|----------------------------|-------------------------|
|----------------------------|-------------------------|


   E     E  E  E  E  E  E  E    E  E  E  E  E E  E E
|----------------------------|-----------------------|
|-16----17-16-17-15----------|----------15-----------|
|-------------------17-17-14-|----14-16----17---16---|
|----------------------------|-16--------------------|
|----------------------------|-----------------------|
|----------------------------|-----------------------|
|
|  S  S  E  E  E  E  E  E  E    E  Q     E  E E  E E
|----------------------------|-----------------------|
|-------------------11-10----|-----------------------|
|-12-12-12-12-12-10-------10-|-14--------------------|
|----------------------------|----------16-17---15---|
|----------------------------|-----------------------|
|----------------------------|-----------------------|


   E     E  E  E  E E Q     E     E  E  E  E E Q
|------------------------|-------------------------|
|-16----17-15------------|-16----17-15-------------|
|-------------17-17------|-------------17-17-------|
|------------------------|-------------------------|
|------------------------|-------------------------|
|------------------------|-------------------------|
|
|  S  S  E  E  E  E E Q     S  S  E  E  E  E E Q
|------------------------|-------------------------|
|------------------------|-------------------------|
|------------------------|-------------------------|
|-------10--9--8--7------|-------10--9--8--7-------|
|-10-10------------------|-10-10-------------------|
|------------------------|-------------------------|


   E     E  E  E  E  E  E  E    E E  E E  E E Q
|----------------------------|-------------------|
|-16----17-16-17-15----------|------15-----------|
|-------------------17-17-14-|-17--------17------|
|----------------------------|-------------------|
|----------------------------|-------------------|
|----------------------------|-------------------|
|
|  S  S  E  E  E  E  E  E  E    E E  E E  E E Q
|----------------------------|-------------------|
|-17-17-17-17-17-15-15-15-15-|-15---15-----------|
|----------------------------|-----------17------|
|----------------------------|-------------------|
|----------------------------|-------------------|
|----------------------------|-------------------|


  H       Q   Q     W
|-----------------|------------------|
|-----------------|------------------|
|-----------------|------------------|
|-------------5---|------------------|
|-7-------5-------|------------------|
|-----------------|-8----------------|
|
| E E E E E E E E   E E E E E E E E
|-----------------|------------------|
|-------------8---|-------------8----|
|-5---5-7-5-------|-5---5-7-5--------|
|---5-------5---5-|---5-------5---5--|
|-----------------|------------------|
|-----------------|------------------|


  H       Q   Q      W                 H       Q   Q     W
|-----------------|------------------|-----------------|-----------------|
|-----------------|------------------|-----------------|-----------------|
|-------------5---|-10---------------|-----------------|-----------------|
|-7-------5-------|------------------|-------------5---|-----------------|
|-----------------|--8---------------|-7-------5-------|-----------------|
|-----------------|------------------|-----------------|-8---------------|
|
| E E E E E E E E    E E E E E E E E   E E E E E E E E   E E E E E E E E
|-----------------|------------------|-----------------|-----------------|
|-------------8---|------------------|-------------8---|-------------8---|
|-5---5-7-5-------|--5---5-7-5---4---|-5---5-7-5-------|-5---5-7-5-------|
|---5-------5---5-|----5-------5---5-|---5-------5---5-|---5-------5---5-|
|-----------------|------------------|-----------------|-----------------|
|-----------------|------------------|-----------------|-----------------|


  H       Q   Q     W
|-----------------|-8---------------|
|-----------------|-----------------|
|-------------4---|-5---------------|
|-7-------5-------|-----------------|
|-----------------|-----------------|
|-----------------|-----------------|
|
| E E E E E E E E   E E E E E E E E
|-----------------|-----------------|
|-------------8---|-----------------|
|-5---5-7-5-------|-5---5-7-5---4---|
|---5-------5---5-|---5-------5---5-|
|-----------------|-----------------|
|-----------------|-----------------|


   E     E  E  E  E E Q     E     E  E  E  E E Q
|------------------------|------------------------|
|-16----17-15------------|-16----17-15------------|
|-------------17-17------|-------------17-17------|
|------------------------|------------------------|
|------------------------|------------------------|
|------------------------|------------------------|
|
|  S  S  E  E  E  E E Q     S  S  E  E  E  E E Q
|------------------------|------------------------|
|------------------------|------------------------|
|------------------------|------------------------|
|-------10--9--8--7------|-------10--9--8--7------|
|-10-10------------------|-10-10------------------|
|------------------------|------------------------|


   E    E  E  E  E  E  E  E    E E  E E  E E Q
|---------------------------|-------------------|
|-16---17-16-17-15----------|------15-----------|
|------------------17-17-14-|-17--------17------|
|---------------------------|-------------------|
|---------------------------|-------------------|
|---------------------------|-------------------|
|
|  S S  E  E  E  E  E  E  E    E E  E E  E E Q
|---------------------------|-------------------|
|---------------------------|-------------------|
|---------------------------|-------------------|
|--5-5--5--5--5--3--3--3--3-|--3----3----2------|
|---------------------------|-------------------|
|---------------------------|-------------------|


  E E  E E E E E  E   E E  E E E E E  E
|-------------------|--------------------|
|-------------------|--------------------|
|-------------------|--------------------|
|-------------------|--------------------|
|--------7-8-8-9-10-|--------7-8-8-9-10--|
|-8-8-11------------|-8-8-11-------------|
|
| W                   W
|-------------------|--------------------|
|-------------------|--------------------|
|-------------------|--------------------|
|-------------------|--------------------|
|-------------------|--------------------|
|-------------------|--------------------|


  E E  E E E E E  E    E  E  E  E  E  E  E  E
|-------------------|-------------------------|
|-------------------|-------------------------|
|-------------------|-------------------------|
|-------------------|-13-12-11-10-------------|
|--------7-8-8-9-10-|-------------14-13-12-11-|
|-8-8-11------------|-------------------------|


  E E  E E E E E  E   E E  E E E E E  E
|-------------------|-------------------|
|-------------------|-------------------|
|-------------------|-------------------|
|-------------------|-------------------|
|--------7-8-8-9-10-|--------7-8-8-9-10-|
|-8-8-11------------|-8-8-11------------|


  E E  E E E E E  E    E  E  E  E  E  E  E  E   E E Q  H      E E Q  H
|-------------------|-------------------------|-------------|-------------|
|-------------------|-------------------------|-------------|-------------|
|-------------------|-------------------------|-------------|-------------|
|-------------------|-13-12-11-10-------------|-------------|-------------|
|--------7-8-8-9-10-|-------------14-13-12-11-|-7-6---------|-7-6---------|
|-8-8-11------------|-------------------------|-------------|-------------|


  E E Q  H      W           H                       H
|-------------|----------|-------------------------10----------------------|
|-------------|----------|-12----------------------------------------------|
|-------------|----------|-------------------------------------------------|
|-------------|----------|-------------------------------------------------|
|-7-6---------|----------|-------------------------------------------------|
|-------------|----------|-------------------------------------------------|
|
| W             W           S  S  S  S  S  S  S  S  S  S  S  S  S  S  S  S
|-------------|----------|-15-15-------------------15-15-------------------|
|-------------|----------|-------15-15-------15-15-------15-15-------15-15-|
|-------------|----------|-------------12-12-------------------12-12-------|
|-------------|----------|-------------------------------------------------|
|-------------|----------|-------------------------------------------------|
|-------------|----------|-------------------------------------------------|


   H                       H
|----------------------------------------------------|
|-------------------------10-------------------------|
|-12-------------------------------------------------|
|----------------------------------------------------|
|----------------------------------------------------|
|----------------------------------------------------|
|
|  S  S  S  S  S  S  S  S  S  S  S  S  S  S  S  S
|-15-15-------------------15-15----------------------|
|-------15-15-------15-15-------15-15-------15-15----|
|-------------12-12-------------------12-12----------|
|----------------------------------------------------|
|----------------------------------------------------|
|----------------------------------------------------|


   H                       H                         W
|-------------------------------------------------|-10-----||
|-------------------------------------------------|-11----o||
|-12----------------------------------------------|--------||
|-------------------------12----------------------|--------||
|-------------------------------------------------|-------o||
|-------------------------------------------------|--------||
|
|  S  S  S  S  S  S  S  S  S  S  S  S  S  S  S  S    W
|-15-15-------------------15-15-------------------|-15-----||
|-------15-15-------15-15-------15-15-------15-15-|-------o||
|-------------12-12-------------------12-12-------|--------||
|-------------------------------------------------|--------||
|-------------------------------------------------|-------o||
|-------------------------------------------------|--------||


Suggest correction
Creating personal tab
Creating personal tab
You can edit any tab online and save it as your Personal.

You can edit, replace or remove any tab part or add personal notes – all changes will be seen only by you.

Personal tabs can be accessed anytime from any device, even offline.
Learn more »
Give kudos to tab author, rate the tab!
1 2 3 4 5
comments
print report bad tab
guest
You may want to rate the tab now too:
select rating
Wanna post a correction for this tab? Suggest correction