Oops, an error
Loading. Please wait.

Dragon Age Inquisition - I Am The One chords

version 1
version 1

Whole song

Interactive

1,720 views 42 this week
1 commentread comment
1 2 3 4 5
1 last vote to show rating
add to favorites
×
Save as Personal and add changes to this tab that will be seen only by you. Learn more ›
×
You can save this tab as Personal to edit and correct it or add notes. All changes will be seen only by you. Learn more »
launch autoscroll
font size
0
reset
transpose
0
reset
display chords
guitar tuner
edit
Autoscroll
slow
fast
+/-
esc
set tempo
stop
Author
Strumming
There is no strumming pattern for this song yet. and get +5 IQ
Dragon Age: Inquisition--I Am The One
As always, feel free to add any corrections or improvements you find!

Intro:

e|  -------1--2--2/4--2--1h2--1-------- |    
B|  -2--2-----------------------2--2--- |    * h=hammer on
G|  ----------------------------------- |    * p=pull off
D|  ----------------------------------- |    * /=slide up
A|  ----------------------------------- |    
E|  ----------------------------------- |

e|  -------1--2--4--7--2--1h2p1------------------------ |
B|  -2--2------------------------2--------2--2-----2--- |
G|  --------------------------------4--4--------4------ |
D|  --------------------------------------------------- |
A|  --------------------------------------------------- |
E|  --------------------------------------------------- |


C#                     A     B      F#m
I feel sun through the ashes in the sky
C#          A          E        F#       C#m     Abm
Where's the one who'll guide us into the night?
C#                  A             B            C#
What's begun is the war that will force this divide
          A       E        F#         Abm    C#
What's to come is fire and the end of time

Eb F#     Ab
I  am the one
B         Eb   F#          Ab    B
who can recount what we've lost
Eb F#     Ab
I  am the one
B             C#m  F#
Who will live on

C#                     A         B        C#     F#m
I have run through the fields of pain and sighs
C#     A         E       F#    Abm   C#
I have fought to see the other side

Eb F#     Ab
I  am the one
B          Eb   F#         Ab    B
who can recount what we've lost
Eb F#     Ab
I  am the one
B             Ab
Who will live on

            
            
Suggest correction
Creating personal tab
Creating personal tab
You can edit any tab online and save it as your Personal.

You can edit, replace or remove any tab part or add personal notes – all changes will be seen only by you.

Personal tabs can be accessed anytime from any device, even offline.
Learn more »
Give kudos to tab author, rate the tab!
1 2 3 4 5
comments
print report bad tab
1 comment total.
0 reply
Zuriahz 238 Mar 13, 2016 09:04 PM

btw-if you transpose it down 4 steps and put a capo on the 4th fret it's easier to play!

guest
You may want to rate the tab now too:
select rating
Wanna post a correction for this tab? Suggest correction