Oops, an error
Loading. Please wait.

Duck Tales - The Moon tab

version 1
version 1

Whole song

Interactive

2,020 views 45 this week
no commentswrite comment
1 2 3 4 5
x 3
add to favorites
×
Save as Personal and add changes to this tab that will be seen only by you. Learn more ›
×
You can save this tab as Personal to edit and correct it or add notes. All changes will be seen only by you. Learn more »
launch autoscroll
font size
0
reset
how to read this tab
guitar tuner
edit
Autoscroll
slow
fast
+/-
esc
set tempo
stop
Author
I've tried to preserve the time signature. The first measure is all 16th notes,
but after that the time signature does things.
Also, if you have a cutout you can move this up 12 frets. I think it sounds
better there, and is easier to play because the frets are closer together.


[Intro]

e|--------------------------------|--------------------------------|
B|--------------------------------|--------------------------------|
G|--------1-----1-4---4-3---3-1---|------------------------1---4---|
D|4-----4-----4-----------------4-|--------------------4-----------|
A|----4-----4-------4-----4-------|4-------------------------------|
E|--2-----------------------------|--------------------------------|

e|--------------------------------|--------------------------------|
B|--------------------------------|2-------------------------------|
G|4-------3-3-------------1-------|--------------------------------|
D|----------------------------4---|------------4-----------4-------|
A|--------------------------------|--------------------------------|
E|--------------------------------|--------------------------------|

e|--------------------------------|--------------------------------|
B|------------------------------2-|--------------------------------|
G|------------------------1-------|--------------------------------|
D|----------------------------4---|--------------------------------|
A|--------------------------------|--------------------------------|
E|--------------------------------|--------------------------------|


[Verse]

e|--------------------------------|--------------------------------|
B|--------------------------------|--------------------------------|
G|--------------------------------|1---3---------------------------|
D|--------------------4---3---4---|------4---------------------3-4-|
A|--------1-2-4-4-----------------|--------------------------------|
E|--------------------------------|--------------------------------|

e|--------------------------------|--------------------------------|
B|2-------------------------------|--------------------------------|
G|--------------------------------|----------1---------------------|
D|------4-4-------------------4-4-|4-----------4-3-----------------|
A|--------------------------------|--------------------------------|
E|--------------------------------|--------------------------------|

e|--------------------------------|--------------------------------|
B|--------------------------------|------------------------2-------|
G|----------------------------1---|4-----3-3-------------------4---|
D|------------------------4-------|--------------------------------|
A|1-------------4-----------------|--------------------------------|
E|----------4-2-------------------|--------------------------------|

e|--------------------------------|--------------------------------|
B|--------------------------------|--------------------------------|
G|3-4-3-------------1-------------|--------------------------------|
D|------4-------------4-3-1-3-----|4-----4-----4-------------------|
A|----------4---------------------|--------------------------------|
E|--------------------------------|--------------------------------|

e|--------------------------------|--------------------------------|
B|--------------------------------|--------------------------------|
G|--------1-1---------------------|--------------------------------|
D|4-4-----------2---2-------2-----|--------------------------------|
A|--------2-2-----------4-----2-*-|2-----2------2------------------|
E|5-5-----------5---------------*-|----5-----5---------------------|

e|--------------------------------|--------------------------------|
B|--------------------------------|--------------2-----------2-2-2-|
G|--------1-1---2-------------2-4-|------------2-------------------|
D|4-4-----2-2-------2---2---2-2-4-|------------4-5-----------4-4-5-|
A|5-5-----------4---4---4---4-----|--------------------------------|
E|--------------------------------|--------------------------------|

e|--------------------------------|
B|--------------------------------|
G|--------1-----1-4---4-3---2-1---|
D|4-----4-----4-----------------4-|
A|----4-----4-------4-----4-------|
E|--2-----------------------------|


*************************************

 ** 48th notes!!!:       
 (these notes didn't fit, but are played quickly  where the astrixes are)
    
E|-----|        
B|-----|             
G|-----|             
D|-----|             
A|4-2--|             
E|----5|             

************************************
Suggest correction
Creating personal tab
Creating personal tab
You can edit any tab online and save it as your Personal.

You can edit, replace or remove any tab part or add personal notes – all changes will be seen only by you.

Personal tabs can be accessed anytime from any device, even offline.
Learn more »
Give kudos to tab author, rate the tab!
1 2 3 4 5
comments
print report bad tab
guest
You may want to rate the tab now too:
select rating
Wanna post a correction for this tab? Suggest correction