Oops, an error
Loading. Please wait.

Dynasty Warriors - Dance Macabre Tab

1,158 views 1 this week
no commentswrite comment
1 2 3 4 5
3 more votes to show rating
add to favorites
launch autoscroll
font size
0
reset
how to read this tab
guitar tuner
Autoscroll
slow
fast
+/-
esc
set tempo
stop
Help us to improve Ultimate-Guitar.com Take our survey!
×
Okay, I Love This Little Solo In Dynasty Warriors And learned It By Ear because
it's just so cool XD

::Dance Macabre (DW4 OST & DW5 ~OST):: (talking Game wise on DW5 XL, its Han Shui
And Xin Castle, they are the ones i know for sure have this track on.)
::From Dynasty Warriors Game Owned By Koei::
::Intermediate Difficulty Due To Part 3::
::

This is the last little solo part in it

Part I (all Guitar Parts play at same time)

Guitar I


e|----------------------------------------------|
B|----------------------------------------------|___
G|---5-------7-7-5----------5-------------   ---|
D|-7-5-7-7-x-7-7-5-7-5-6--7-5-7-7-x-3-3-5-------| This Plays throughout this part
A|-7---7-7-x-------7-5-6--7---7-7-x-3-3-5-___---|
E|----------------------------------------------|

Guitar 2
    Full
     |
e|-10b-8----10-8------------8--8--8--7-8--8--7-8--7-8--7------|
B|-------10------10-8-8-10--10-10-10-8-10-10-8-10-8-10-8------|__
G|-------------------------------------------------------  ---|
D|------------------------------------------------------------| - Repeated 4 times
A|-------------------------------------------------------__---|
E|------------------------------------------------------------|

Guitar 3 (comes in after guitar 2 has repeated twice)
(i'm not 100% sure this is right, so if you have corrections please state)

e|-17b-15----17-15-------------15-15-15-14-15-15-14-15-14-15-14------|
B|--------17-------17-15-15-17-17-17-17-15-17-17-15-17-15-17-15------|__
G|-------------------------------------------------------------  ----|
D|-------------------------------------------------------------   ---|X2
A|-------------------------------------------------------------__----|
E|-------------------------------------------------------------------|

Part II

Guitar I


e|-------------------------------------------------------|
B|-------------------------------------------------------|__
G|---------5-----------7-----------5---------------5  ---|
D|-7-7-7-7-5-x-7-7-7-7-7-x-7-7-7-7-5-7-------5-6-7-------|  - Repeat 3 times
A|-7-7-7-7---x-7-7-7-7---x-7-7-7-7---7-5-6-7-------------|__
E|-------------------------------------------------------|
                                       |
Guitar 2 (comes in at this part here---- After 2 repeats)

e|--------8-9-10-12------------|
B|-8-9-10-----------8----------|v-___
G|---------------------  ------|
D|---------------------   -----|only played once
A|---------------------__------|
E|-----------------------------|

Guitar 3 (comes in with guitar 2)


e|------------------|
B|------------------|
G|-------------7----|
D|-------7-8-9---9v-|
A|-7-8-9------------|
E|------------------|

Guitar I Then Comes In After That With

e|--------------------------------------|
B|--------------------------------------|
G|---------5-----------7-----------5----|
D|-7-7-7-7-5-x-7-7-7-7-7-x-7-7-7-7-5--7-|
A|-7-7-7-7---x-7-7-7-7---x-7-7-7-7----7-|
E|--------------------------------------|

Part III

Guitar 1 Plays the part shown in Part I

Guitar 2

e|------12----------------------------------|
B|-10------13br-11-10------10-12br-10-x-----|
G|----------------------12--------------12--|
D|------------------------------------------|
A|------------------------------------------|
E|------------------------------------------|

e|------12---------------------------------------------------------|
B|-10------13br-11-10------10----------------------------------12v-|
G|----------------------12----12-14-10-12----10-------10-12-14-----|
D|----------------------------------------14----12-14--------------|
A|-----------------------------------------------------------------|
E|-----------------------------------------------------------------|

e|------12-10-12-13-15brv-|
B|-10---------------------|
G|------------------------|
D|------------------------|
A|------------------------|
E|------------------------|

Then Goes back to Part I, but then not Part two, it changes to something less solo-y :D

Hope this helps / gives you something to learn when your bored aha.
Suggest correction
Give kudos to tab author, rate the tab!
1 2 3 4 5
comments
print report bad tab
guest
You may want to rate the tab now too:
select rating
Wanna post a correction for this tab? Suggest correction