Oops, an error
Loading. Please wait.

Dynasty Warriors - Ultimate Pressure Tab

259 views 1 this week
no commentswrite comment
1 2 3 4 5
please rate
add to favorites
launch autoscroll
font size
0
reset
how to read this tab
guitar tuner
Tab Pro tools
  • play this tab
  • loop segment
  • change instrument
  • show fretboard
  • metronome
Autoscroll
slow
fast
+/-
esc
set tempo
stop
Contributor
Tuning
C# G# C# F# A# D#
Song: Ultimate Pressure
Artist: Dynasty Warriors Music
Tuning: Drop Db/ Drop C#
Tabbed By: GuitarHawk99
Description:




Intro Guitar 2 
w/ Dist &
 Octave        octave off
|-------|--|---------------------------|--|
|-------|()|---------------------------|()|
|-------|--|---------------------------|--|
|-0--0--|--|----------------------0--0-|--| x4
|-0--0--|()|-0-0-0-0--3-5---------0--0-|()|
|-0--0--|--|-0-0-0-0------0-6-5-3-0--0-|--|
          Pm\-------/
             Octave on
|---------|--------------| |-----------------------------|
|---------|--------------| |-----------------------------|
|---------|--------------| |-----------------------------|
|---------|--------------| |-0--0------------------------| x5
|-0-0-0-0-|-3-5----------| |-0--0--0-0-0-0--3-5----------|
|-0-0-0-0-|-----0-6-5-3--| |-0--0--0-0-0-0------0-6-5-3--|
Pm\------/                      pm\-------/


Guitar 2 continues riff while guitar 1 play chorus...


chorus
|------------------------------------------------------|
|------------------------------------------------------|
|-7~~~--5~~~--4~~~--2~~~---7~~~--5~~~--4~~~-4br-4-2~~~-|
|------------------------------------------------------|
|------------------------------------------------------|
|------------------------------------------------------|

|----------------------------------------------------------------------|
|-15~~-13---13~~-10-12-13-12-10h12h13p12-10-13-13-10----10-------------|
|---------14-----------------------------------------13----13p12-10----|
|----------------------------------------------------------------------|
|----------------------------------------------------------------------|
|----------------------------------------------------------------------|

|------------------------------------------------------------------------|
|---8--------------------------------------------------------------------|
|-7---10-12p10--10---------------------------------------10~-------------|
|-------------12---12-10-12-10----10----10-------10--12------12-10-12-12-|
|------------------------------12-10-12-10-10-12-------------------------|
|------------------------------------------------------------------------|

|--------------------------10-13-15b~~r-13-15-----------|
|--------------------10-13--------------------15~~-8/15-|
|--------------10-12------------------------------------|
|--------10-12------------------------------------------|
|-10-12-------------------------------------------------|
|-------------------------------------------------------|
Pm\----/

|-19-19p15--19-19p15--19-19p15--19-19p15--19-19p15--19-19p15--19-19p15-|
|----------------------------------------------------------------------|
|----------------------------------------------------------------------|
|----------------------------------------------------------------------|
|----------------------------------------------------------------------|
|----------------------------------------------------------------------|

|-17br-15-14-15-14------------------------|
|------------------17-15----15-17-17br-15-|
|------------------------16---------------|
|-----------------------------------------|
|-----------------------------------------|
|-----------------------------------------|

|-----------------------------------------------|--------------------|
|-7~~~-8~~~-5~~~-7~~-5-8-7~~~-8~~~-5~~~-12~10~8-|-10~~~~~~~~~~~~~~~\-|
|-----------------------------------------------|--------------------|
|-----------------------------------------------|--------------------| x2
|-----------------------------------------------|--------------------|
|-----------------------------------------------|--------------------|

Repeat till Fade...
comments
We did not receive enough feedback on this tab! Please rate:
print report bad tab
1 2 3 4 5
I want to post or [tab]
guest
You may want to rate the tab now too:
select rating
Please do not post tabs as comments. Select "correction" instead!